  0
SECTION
  2
HEADER
  9
$ANGBASE
  50
0.0
  9
$ANGDIR
  70
1
  9
$MEASUREMENT
  70
1
  0
ENDSEC
  0
SECTION
  2
TABLES
  0
TABLE
  2
LTYPE
  70
4
  0
LTYPE
  5
40F
  2
CONTINUOUS
  70
0
  3
Solid line
  72
65
  73
0
  40
0.0
  0
LTYPE
  5
410
  2
DASHDOT
 70
0
  3
Dash Dot ____ _ ____ _
 72
65
 73
4
 40
2.0
 49
1.25
 49
-0.25
 49
0.25
 49
-0.25
  0
LTYPE
  5
411
  2
DASHED
 70
0
  3
Dashed __ __ __ __ __
 72
65
 73
2
 40
0.75
 49
0.5
 49
-0.25
  0
LTYPE
  5
43B
  2
DOTTED
 70
0
  3
Dotted .  .  .  .
 72
65
 73
2
 40
0.2
 49
0.0
 49
-0.2
  0
ENDTAB
  0
TABLE
  2
STYLE
  70
4
  0
STYLE
  2
KICAD
  70
0
  40
0
  41
1
  42
1
  50
0
  71
0
  3
isocp.shx
  0
STYLE
  2
KICADB
  70
0
  40
0
  41
1
  42
1
  50
0
  71
0
  3
isocp.shx
  0
STYLE
  2
KICADI
  70
0
  40
0
  41
1
  42
1
  50
15
  71
0
  3
isocp.shx
  0
STYLE
  2
KICADBI
  70
0
  40
0
  41
1
  42
1
  50
15
  71
0
  3
isocp.shx
  0
ENDTAB
  0
TABLE
  2
LAYER
  70
1
  0
LAYER
  2
BLACK
  70
0
  62
7
  6
CONTINUOUS
  0
ENDTAB
  0
ENDSEC
  0
SECTION
  2
ENTITIES
0
LINE
8
BLACK
6
CONTINUOUS
10
16.7437
20
5.16226
11
16.783
21
5.12928
0
LINE
8
BLACK
6
CONTINUOUS
10
16.783
20
5.12928
11
16.7919
21
5.07876
0
LINE
8
BLACK
6
CONTINUOUS
10
16.7919
20
5.07876
11
16.7663
21
5.03433
0
LINE
8
BLACK
6
CONTINUOUS
10
16.7663
20
5.03433
11
16.718
21
5.01678
0
LINE
8
BLACK
6
CONTINUOUS
10
16.718
20
5.01678
11
16.2643
21
5.01678
0
LINE
8
BLACK
6
CONTINUOUS
10
16.2643
20
5.01678
11
16.4888
21
4.76022
0
LINE
8
BLACK
6
CONTINUOUS
10
16.4888
20
4.76022
11
16.4946
21
4.75057
0
LINE
8
BLACK
6
CONTINUOUS
10
16.4946
20
4.75057
11
16.4973
21
4.74833
0
LINE
8
BLACK
6
CONTINUOUS
10
16.4973
20
4.74833
11
16.4978
21
4.74527
0
LINE
8
BLACK
6
CONTINUOUS
10
16.4978
20
4.74527
11
16.5023
21
4.73793
0
LINE
8
BLACK
6
CONTINUOUS
10
16.5023
20
4.73793
11
16.5027
21
4.71772
0
LINE
8
BLACK
6
CONTINUOUS
10
16.5027
20
4.71772
11
16.5062
21
4.6978
0
LINE
8
BLACK
6
CONTINUOUS
10
16.5062
20
4.6978
11
16.5032
21
4.69262
0
LINE
8
BLACK
6
CONTINUOUS
10
16.5032
20
4.69262
11
16.5033
21
4.68664
0
LINE
8
BLACK
6
CONTINUOUS
10
16.5033
20
4.68664
11
16.4906
21
4.67089
0
LINE
8
BLACK
6
CONTINUOUS
10
16.4906
20
4.67089
11
16.4805
21
4.65338
0
LINE
8
BLACK
6
CONTINUOUS
10
16.4805
20
4.65338
11
16.4749
21
4.65133
0
LINE
8
BLACK
6
CONTINUOUS
10
16.4749
20
4.65133
11
16.4712
21
4.64667
0
LINE
8
BLACK
6
CONTINUOUS
10
16.4712
20
4.64667
11
16.4513
21
4.64274
0
LINE
8
BLACK
6
CONTINUOUS
10
16.4513
20
4.64274
11
16.4323
21
4.63583
0
LINE
8
BLACK
6
CONTINUOUS
10
16.4323
20
4.63583
11
16.3072
21
4.63583
0
LINE
8
BLACK
6
CONTINUOUS
10
16.3072
20
4.63583
11
16.2387
21
4.60157
0
LINE
8
BLACK
6
CONTINUOUS
10
16.2387
20
4.60157
11
16.2083
21
4.57116
0
LINE
8
BLACK
6
CONTINUOUS
10
16.2083
20
4.57116
11
16.174
21
4.50265
0
LINE
8
BLACK
6
CONTINUOUS
10
16.174
20
4.50265
11
16.174
21
4.29996
0
LINE
8
BLACK
6
CONTINUOUS
10
16.174
20
4.29996
11
16.2083
21
4.23145
0
LINE
8
BLACK
6
CONTINUOUS
10
16.2083
20
4.23145
11
16.2387
21
4.20104
0
LINE
8
BLACK
6
CONTINUOUS
10
16.2387
20
4.20104
11
16.3072
21
4.16678
0
LINE
8
BLACK
6
CONTINUOUS
10
16.3072
20
4.16678
11
16.5575
21
4.16678
0
LINE
8
BLACK
6
CONTINUOUS
10
16.5575
20
4.16678
11
16.626
21
4.20104
0
LINE
8
BLACK
6
CONTINUOUS
10
16.626
20
4.20104
11
16.665
21
4.24005
0
LINE
8
BLACK
6
CONTINUOUS
10
16.665
20
4.24005
11
16.6863
21
4.25499
0
LINE
8
BLACK
6
CONTINUOUS
10
16.6863
20
4.25499
11
16.7375
21
4.25946
0
LINE
8
BLACK
6
CONTINUOUS
10
16.7375
20
4.25946
11
16.7795
21
4.23004
0
LINE
8
BLACK
6
CONTINUOUS
10
16.7795
20
4.23004
11
16.7928
21
4.18048
0
LINE
8
BLACK
6
CONTINUOUS
10
16.7928
20
4.18048
11
16.7711
21
4.13399
0
LINE
8
BLACK
6
CONTINUOUS
10
16.7711
20
4.13399
11
16.7235
21
4.08637
0
LINE
8
BLACK
6
CONTINUOUS
10
16.7235
20
4.08637
11
16.7051
21
4.07351
0
LINE
8
BLACK
6
CONTINUOUS
10
16.7051
20
4.07351
11
16.704
21
4.07232
0
LINE
8
BLACK
6
CONTINUOUS
10
16.704
20
4.07232
11
16.6087
21
4.0247
0
LINE
8
BLACK
6
CONTINUOUS
10
16.6087
20
4.0247
11
16.5838
21
4.01727
0
LINE
8
BLACK
6
CONTINUOUS
10
16.5838
20
4.01727
11
16.5794
21
4.01831
0
LINE
8
BLACK
6
CONTINUOUS
10
16.5794
20
4.01831
11
16.5752
21
4.01678
0
LINE
8
BLACK
6
CONTINUOUS
10
16.5752
20
4.01678
11
16.2895
21
4.01678
0
LINE
8
BLACK
6
CONTINUOUS
10
16.2895
20
4.01678
11
16.2638
21
4.0213
0
LINE
8
BLACK
6
CONTINUOUS
10
16.2638
20
4.0213
11
16.2604
21
4.02419
0
LINE
8
BLACK
6
CONTINUOUS
10
16.2604
20
4.02419
11
16.2559
21
4.0247
0
LINE
8
BLACK
6
CONTINUOUS
10
16.2559
20
4.0247
11
16.1607
21
4.07232
0
LINE
8
BLACK
6
CONTINUOUS
10
16.1607
20
4.07232
11
16.1427
21
4.08568
0
LINE
8
BLACK
6
CONTINUOUS
10
16.1427
20
4.08568
11
16.1412
21
4.08637
0
LINE
8
BLACK
6
CONTINUOUS
10
16.1412
20
4.08637
11
16.0936
21
4.13399
0
LINE
8
BLACK
6
CONTINUOUS
10
16.0936
20
4.13399
11
16.0807
21
4.15235
0
LINE
8
BLACK
6
CONTINUOUS
10
16.0807
20
4.15235
11
16.0795
21
4.15348
0
LINE
8
BLACK
6
CONTINUOUS
10
16.0795
20
4.15348
11
16.0319
21
4.24872
0
LINE
8
BLACK
6
CONTINUOUS
10
16.0319
20
4.24872
11
16.0245
21
4.27368
0
LINE
8
BLACK
6
CONTINUOUS
10
16.0245
20
4.27368
11
16.0255
21
4.27804
0
LINE
8
BLACK
6
CONTINUOUS
10
16.0255
20
4.27804
11
16.024
21
4.28226
0
LINE
8
BLACK
6
CONTINUOUS
10
16.024
20
4.28226
11
16.024
21
4.52035
0
LINE
8
BLACK
6
CONTINUOUS
10
16.024
20
4.52035
11
16.0285
21
4.54601
0
LINE
8
BLACK
6
CONTINUOUS
10
16.0285
20
4.54601
11
16.0314
21
4.54944
0
LINE
8
BLACK
6
CONTINUOUS
10
16.0314
20
4.54944
11
16.0319
21
4.55389
0
LINE
8
BLACK
6
CONTINUOUS
10
16.0319
20
4.55389
11
16.0795
21
4.64913
0
LINE
8
BLACK
6
CONTINUOUS
10
16.0795
20
4.64913
11
16.0929
21
4.66714
0
LINE
8
BLACK
6
CONTINUOUS
10
16.0929
20
4.66714
11
16.0936
21
4.66862
0
LINE
8
BLACK
6
CONTINUOUS
10
16.0936
20
4.66862
11
16.1412
21
4.71624
0
LINE
8
BLACK
6
CONTINUOUS
10
16.1412
20
4.71624
11
16.1596
21
4.7291
0
LINE
8
BLACK
6
CONTINUOUS
10
16.1596
20
4.7291
11
16.1607
21
4.73029
0
LINE
8
BLACK
6
CONTINUOUS
10
16.1607
20
4.73029
11
16.2559
21
4.77791
0
LINE
8
BLACK
6
CONTINUOUS
10
16.2559
20
4.77791
11
16.2702
21
4.78217
0
LINE
8
BLACK
6
CONTINUOUS
10
16.2702
20
4.78217
11
16.0426
21
5.04239
0
LINE
8
BLACK
6
CONTINUOUS
10
16.0426
20
5.04239
11
16.0367
21
5.05204
0
LINE
8
BLACK
6
CONTINUOUS
10
16.0367
20
5.05204
11
16.034
21
5.05428
0
LINE
8
BLACK
6
CONTINUOUS
10
16.034
20
5.05428
11
16.0335
21
5.05734
0
LINE
8
BLACK
6
CONTINUOUS
10
16.0335
20
5.05734
11
16.0291
21
5.06468
0
LINE
8
BLACK
6
CONTINUOUS
10
16.0291
20
5.06468
11
16.0286
21
5.08489
0
LINE
8
BLACK
6
CONTINUOUS
10
16.0286
20
5.08489
11
16.0251
21
5.1048
0
LINE
8
BLACK
6
CONTINUOUS
10
16.0251
20
5.1048
11
16.0281
21
5.10999
0
LINE
8
BLACK
6
CONTINUOUS
10
16.0281
20
5.10999
11
16.028
21
5.11597
0
LINE
8
BLACK
6
CONTINUOUS
10
16.028
20
5.11597
11
16.0407
21
5.13172
0
LINE
8
BLACK
6
CONTINUOUS
10
16.0407
20
5.13172
11
16.0508
21
5.14923
0
LINE
8
BLACK
6
CONTINUOUS
10
16.0508
20
5.14923
11
16.0564
21
5.15128
0
LINE
8
BLACK
6
CONTINUOUS
10
16.0564
20
5.15128
11
16.0602
21
5.15594
0
LINE
8
BLACK
6
CONTINUOUS
10
16.0602
20
5.15594
11
16.08
21
5.15987
0
LINE
8
BLACK
6
CONTINUOUS
10
16.08
20
5.15987
11
16.099
21
5.16678
0
LINE
8
BLACK
6
CONTINUOUS
10
16.099
20
5.16678
11
16.718
21
5.16678
0
LINE
8
BLACK
6
CONTINUOUS
10
16.718
20
5.16678
11
16.7437
21
5.16226
0
LINE
8
BLACK
6
CONTINUOUS
10
17.3538
20
5.16349
11
17.3582
21
5.16376
0
LINE
8
BLACK
6
CONTINUOUS
10
17.3582
20
5.16376
11
17.3757
21
5.15087
0
LINE
8
BLACK
6
CONTINUOUS
10
17.3757
20
5.15087
11
17.3945
21
5.13999
0
LINE
8
BLACK
6
CONTINUOUS
10
17.3945
20
5.13999
11
17.396
21
5.13594
0
LINE
8
BLACK
6
CONTINUOUS
10
17.396
20
5.13594
11
17.3995
21
5.13338
0
LINE
8
BLACK
6
CONTINUOUS
10
17.3995
20
5.13338
11
17.4906
21
4.99671
0
LINE
8
BLACK
6
CONTINUOUS
10
17.4906
20
4.99671
11
17.572
21
4.91533
0
LINE
8
BLACK
6
CONTINUOUS
10
17.572
20
4.91533
11
17.6563
21
4.87315
0
LINE
8
BLACK
6
CONTINUOUS
10
17.6563
20
4.87315
11
17.6773
21
4.85763
0
LINE
8
BLACK
6
CONTINUOUS
10
17.6773
20
4.85763
11
17.6977
21
4.81056
0
LINE
8
BLACK
6
CONTINUOUS
10
17.6977
20
4.81056
11
17.683
21
4.76139
0
LINE
8
BLACK
6
CONTINUOUS
10
17.683
20
4.76139
11
17.6402
21
4.73312
0
LINE
8
BLACK
6
CONTINUOUS
10
17.6402
20
4.73312
11
17.5893
21
4.73898
0
LINE
8
BLACK
6
CONTINUOUS
10
17.5893
20
4.73898
11
17.494
21
4.7866
0
LINE
8
BLACK
6
CONTINUOUS
10
17.494
20
4.7866
11
17.476
21
4.79996
0
LINE
8
BLACK
6
CONTINUOUS
10
17.476
20
4.79996
11
17.4745
21
4.80065
0
LINE
8
BLACK
6
CONTINUOUS
10
17.4745
20
4.80065
11
17.4121
21
4.8631
0
LINE
8
BLACK
6
CONTINUOUS
10
17.4121
20
4.8631
11
17.4121
21
4.16678
0
LINE
8
BLACK
6
CONTINUOUS
10
17.4121
20
4.16678
11
17.6228
21
4.16678
0
LINE
8
BLACK
6
CONTINUOUS
10
17.6228
20
4.16678
11
17.6485
21
4.16226
0
LINE
8
BLACK
6
CONTINUOUS
10
17.6485
20
4.16226
11
17.6878
21
4.12928
0
LINE
8
BLACK
6
CONTINUOUS
10
17.6878
20
4.12928
11
17.6967
21
4.07876
0
LINE
8
BLACK
6
CONTINUOUS
10
17.6967
20
4.07876
11
17.671
21
4.03433
0
LINE
8
BLACK
6
CONTINUOUS
10
17.671
20
4.03433
11
17.6228
21
4.01678
0
LINE
8
BLACK
6
CONTINUOUS
10
17.6228
20
4.01678
11
17.0514
21
4.01678
0
LINE
8
BLACK
6
CONTINUOUS
10
17.0514
20
4.01678
11
17.0257
21
4.0213
0
LINE
8
BLACK
6
CONTINUOUS
10
17.0257
20
4.0213
11
16.9864
21
4.05428
0
LINE
8
BLACK
6
CONTINUOUS
10
16.9864
20
4.05428
11
16.9775
21
4.1048
0
LINE
8
BLACK
6
CONTINUOUS
10
16.9775
20
4.1048
11
17.0032
21
4.14923
0
LINE
8
BLACK
6
CONTINUOUS
10
17.0032
20
4.14923
11
17.0514
21
4.16678
0
LINE
8
BLACK
6
CONTINUOUS
10
17.0514
20
4.16678
11
17.2621
21
4.16678
0
LINE
8
BLACK
6
CONTINUOUS
10
17.2621
20
4.16678
11
17.2621
21
5.09178
0
LINE
8
BLACK
6
CONTINUOUS
10
17.2621
20
5.09178
11
17.2666
21
5.11743
0
LINE
8
BLACK
6
CONTINUOUS
10
17.2666
20
5.11743
11
17.2694
21
5.12074
0
LINE
8
BLACK
6
CONTINUOUS
10
17.2694
20
5.12074
11
17.2699
21
5.12502
0
LINE
8
BLACK
6
CONTINUOUS
10
17.2699
20
5.12502
11
17.2856
21
5.14006
0
LINE
8
BLACK
6
CONTINUOUS
10
17.2856
20
5.14006
11
17.2996
21
5.15673
0
LINE
8
BLACK
6
CONTINUOUS
10
17.2996
20
5.15673
11
17.3038
21
5.15748
0
LINE
8
BLACK
6
CONTINUOUS
10
17.3038
20
5.15748
11
17.307
21
5.16046
0
LINE
8
BLACK
6
CONTINUOUS
10
17.307
20
5.16046
11
17.3287
21
5.16186
0
LINE
8
BLACK
6
CONTINUOUS
10
17.3287
20
5.16186
11
17.3501
21
5.16564
0
LINE
8
BLACK
6
CONTINUOUS
10
17.3501
20
5.16564
11
17.3538
21
5.16349
0
LINE
8
BLACK
6
CONTINUOUS
10
18.3116
20
5.16289
11
18.3132
21
5.16293
0
LINE
8
BLACK
6
CONTINUOUS
10
18.3132
20
5.16293
11
18.456
21
5.11531
0
LINE
8
BLACK
6
CONTINUOUS
10
18.456
20
5.11531
11
18.4789
21
5.10291
0
LINE
8
BLACK
6
CONTINUOUS
10
18.4789
20
5.10291
11
18.4813
21
5.09909
0
LINE
8
BLACK
6
CONTINUOUS
10
18.4813
20
5.09909
11
18.4854
21
5.0972
0
LINE
8
BLACK
6
CONTINUOUS
10
18.4854
20
5.0972
11
18.5806
21
5.00196
0
LINE
8
BLACK
6
CONTINUOUS
10
18.5806
20
5.00196
11
18.5935
21
4.98359
0
LINE
8
BLACK
6
CONTINUOUS
10
18.5935
20
4.98359
11
18.5946
21
4.98246
0
LINE
8
BLACK
6
CONTINUOUS
10
18.5946
20
4.98246
11
18.6423
21
4.88723
0
LINE
8
BLACK
6
CONTINUOUS
10
18.6423
20
4.88723
11
18.646
21
4.87482
0
LINE
8
BLACK
6
CONTINUOUS
10
18.646
20
4.87482
11
18.6479
21
4.87188
0
LINE
8
BLACK
6
CONTINUOUS
10
18.6479
20
4.87188
11
18.6956
21
4.6814
0
LINE
8
BLACK
6
CONTINUOUS
10
18.6956
20
4.6814
11
18.6966
21
4.66647
0
LINE
8
BLACK
6
CONTINUOUS
10
18.6966
20
4.66647
11
18.6978
21
4.66321
0
LINE
8
BLACK
6
CONTINUOUS
10
18.6978
20
4.66321
11
18.6978
21
4.52035
0
LINE
8
BLACK
6
CONTINUOUS
10
18.6978
20
4.52035
11
18.6952
21
4.50561
0
LINE
8
BLACK
6
CONTINUOUS
10
18.6952
20
4.50561
11
18.6956
21
4.50216
0
LINE
8
BLACK
6
CONTINUOUS
10
18.6956
20
4.50216
11
18.6479
21
4.31169
0
LINE
8
BLACK
6
CONTINUOUS
10
18.6479
20
4.31169
11
18.6427
21
4.29986
0
LINE
8
BLACK
6
CONTINUOUS
10
18.6427
20
4.29986
11
18.6423
21
4.29634
0
LINE
8
BLACK
6
CONTINUOUS
10
18.6423
20
4.29634
11
18.5946
21
4.2011
0
LINE
8
BLACK
6
CONTINUOUS
10
18.5946
20
4.2011
11
18.5813
21
4.18309
0
LINE
8
BLACK
6
CONTINUOUS
10
18.5813
20
4.18309
11
18.5806
21
4.18161
0
LINE
8
BLACK
6
CONTINUOUS
10
18.5806
20
4.18161
11
18.4854
21
4.08637
0
LINE
8
BLACK
6
CONTINUOUS
10
18.4854
20
4.08637
11
18.464
21
4.07143
0
LINE
8
BLACK
6
CONTINUOUS
10
18.464
20
4.07143
11
18.4596
21
4.07104
0
LINE
8
BLACK
6
CONTINUOUS
10
18.4596
20
4.07104
11
18.456
21
4.06825
0
LINE
8
BLACK
6
CONTINUOUS
10
18.456
20
4.06825
11
18.3132
21
4.02063
0
LINE
8
BLACK
6
CONTINUOUS
10
18.3132
20
4.02063
11
18.291
21
4.01734
0
LINE
8
BLACK
6
CONTINUOUS
10
18.291
20
4.01734
11
18.2895
21
4.01678
0
LINE
8
BLACK
6
CONTINUOUS
10
18.2895
20
4.01678
11
18.1942
21
4.01678
0
LINE
8
BLACK
6
CONTINUOUS
10
18.1942
20
4.01678
11
18.1721
21
4.02067
0
LINE
8
BLACK
6
CONTINUOUS
10
18.1721
20
4.02067
11
18.1705
21
4.02063
0
LINE
8
BLACK
6
CONTINUOUS
10
18.1705
20
4.02063
11
18.0277
21
4.06825
0
LINE
8
BLACK
6
CONTINUOUS
10
18.0277
20
4.06825
11
18.0048
21
4.08065
0
LINE
8
BLACK
6
CONTINUOUS
10
18.0048
20
4.08065
11
18.0024
21
4.08447
0
LINE
8
BLACK
6
CONTINUOUS
10
18.0024
20
4.08447
11
17.9983
21
4.08637
0
LINE
8
BLACK
6
CONTINUOUS
10
17.9983
20
4.08637
11
17.9507
21
4.13399
0
LINE
8
BLACK
6
CONTINUOUS
10
17.9507
20
4.13399
11
17.9358
21
4.15532
0
LINE
8
BLACK
6
CONTINUOUS
10
17.9358
20
4.15532
11
17.9313
21
4.20643
0
LINE
8
BLACK
6
CONTINUOUS
10
17.9313
20
4.20643
11
17.9607
21
4.24846
0
LINE
8
BLACK
6
CONTINUOUS
10
17.9607
20
4.24846
11
18.0103
21
4.26173
0
LINE
8
BLACK
6
CONTINUOUS
10
18.0103
20
4.26173
11
18.0568
21
4.24005
0
LINE
8
BLACK
6
CONTINUOUS
10
18.0568
20
4.24005
11
18.0919
21
4.20495
0
LINE
8
BLACK
6
CONTINUOUS
10
18.0919
20
4.20495
11
18.2064
21
4.16678
0
LINE
8
BLACK
6
CONTINUOUS
10
18.2064
20
4.16678
11
18.2773
21
4.16678
0
LINE
8
BLACK
6
CONTINUOUS
10
18.2773
20
4.16678
11
18.3918
21
4.20495
0
LINE
8
BLACK
6
CONTINUOUS
10
18.3918
20
4.20495
11
18.4659
21
4.27907
0
LINE
8
BLACK
6
CONTINUOUS
10
18.4659
20
4.27907
11
18.5044
21
4.35605
0
LINE
8
BLACK
6
CONTINUOUS
10
18.5044
20
4.35605
11
18.5478
21
4.52959
0
LINE
8
BLACK
6
CONTINUOUS
10
18.5478
20
4.52959
11
18.5478
21
4.65398
0
LINE
8
BLACK
6
CONTINUOUS
10
18.5478
20
4.65398
11
18.5044
21
4.82751
0
LINE
8
BLACK
6
CONTINUOUS
10
18.5044
20
4.82751
11
18.4659
21
4.9045
0
LINE
8
BLACK
6
CONTINUOUS
10
18.4659
20
4.9045
11
18.3918
21
4.97861
0
LINE
8
BLACK
6
CONTINUOUS
10
18.3918
20
4.97861
11
18.2773
21
5.01678
0
LINE
8
BLACK
6
CONTINUOUS
10
18.2773
20
5.01678
11
18.2064
21
5.01678
0
LINE
8
BLACK
6
CONTINUOUS
10
18.2064
20
5.01678
11
18.0919
21
4.97861
0
LINE
8
BLACK
6
CONTINUOUS
10
18.0919
20
4.97861
11
18.0568
21
4.94351
0
LINE
8
BLACK
6
CONTINUOUS
10
18.0568
20
4.94351
11
18.0355
21
4.92857
0
LINE
8
BLACK
6
CONTINUOUS
10
18.0355
20
4.92857
11
17.9843
21
4.9241
0
LINE
8
BLACK
6
CONTINUOUS
10
17.9843
20
4.9241
11
17.9423
21
4.95352
0
LINE
8
BLACK
6
CONTINUOUS
10
17.9423
20
4.95352
11
17.929
21
5.00308
0
LINE
8
BLACK
6
CONTINUOUS
10
17.929
20
5.00308
11
17.9507
21
5.04958
0
LINE
8
BLACK
6
CONTINUOUS
10
17.9507
20
5.04958
11
17.9983
21
5.0972
0
LINE
8
BLACK
6
CONTINUOUS
10
17.9983
20
5.0972
11
18.0197
21
5.11213
0
LINE
8
BLACK
6
CONTINUOUS
10
18.0197
20
5.11213
11
18.0241
21
5.11253
0
LINE
8
BLACK
6
CONTINUOUS
10
18.0241
20
5.11253
11
18.0277
21
5.11531
0
LINE
8
BLACK
6
CONTINUOUS
10
18.0277
20
5.11531
11
18.1705
21
5.16293
0
LINE
8
BLACK
6
CONTINUOUS
10
18.1705
20
5.16293
11
18.1927
21
5.16622
0
LINE
8
BLACK
6
CONTINUOUS
10
18.1927
20
5.16622
11
18.1942
21
5.16678
0
LINE
8
BLACK
6
CONTINUOUS
10
18.1942
20
5.16678
11
18.2895
21
5.16678
0
LINE
8
BLACK
6
CONTINUOUS
10
18.2895
20
5.16678
11
18.3116
21
5.16289
0
LINE
8
BLACK
6
CONTINUOUS
10
19.9623
20
4.3338
11
19.9798
21
4.29137
0
LINE
8
BLACK
6
CONTINUOUS
10
19.9798
20
4.29137
11
19.9623
21
4.24895
0
LINE
8
BLACK
6
CONTINUOUS
10
19.9623
20
4.24895
11
19.9198
21
4.23137
0
LINE
8
BLACK
6
CONTINUOUS
10
19.9198
20
4.23137
11
19.7042
21
4.23137
0
LINE
8
BLACK
6
CONTINUOUS
10
19.7042
20
4.23137
11
19.6617
21
4.24895
0
LINE
8
BLACK
6
CONTINUOUS
10
19.6617
20
4.24895
11
19.6442
21
4.29137
0
LINE
8
BLACK
6
CONTINUOUS
10
19.6442
20
4.29137
11
19.6617
21
4.3338
0
LINE
8
BLACK
6
CONTINUOUS
10
19.6617
20
4.3338
11
19.7042
21
4.35137
0
LINE
8
BLACK
6
CONTINUOUS
10
19.7042
20
4.35137
11
19.9198
21
4.35137
0
LINE
8
BLACK
6
CONTINUOUS
10
19.9198
20
4.35137
11
19.9623
21
4.3338
0
LINE
8
BLACK
6
CONTINUOUS
10
30.0857
20
5.41749
11
30.09
21
5.41776
0
LINE
8
BLACK
6
CONTINUOUS
10
30.09
20
5.41776
11
30.1075
21
5.40487
0
LINE
8
BLACK
6
CONTINUOUS
10
30.1075
20
5.40487
11
30.1264
21
5.39399
0
LINE
8
BLACK
6
CONTINUOUS
10
30.1264
20
5.39399
11
30.1278
21
5.38994
0
LINE
8
BLACK
6
CONTINUOUS
10
30.1278
20
5.38994
11
30.1313
21
5.38738
0
LINE
8
BLACK
6
CONTINUOUS
10
30.1313
20
5.38738
11
30.2224
21
5.25071
0
LINE
8
BLACK
6
CONTINUOUS
10
30.2224
20
5.25071
11
30.3038
21
5.16932
0
LINE
8
BLACK
6
CONTINUOUS
10
30.3038
20
5.16932
11
30.3882
21
5.12715
0
LINE
8
BLACK
6
CONTINUOUS
10
30.3882
20
5.12715
11
30.4091
21
5.11163
0
LINE
8
BLACK
6
CONTINUOUS
10
30.4091
20
5.11163
11
30.4295
21
5.06456
0
LINE
8
BLACK
6
CONTINUOUS
10
30.4295
20
5.06456
11
30.4149
21
5.01539
0
LINE
8
BLACK
6
CONTINUOUS
10
30.4149
20
5.01539
11
30.372
21
4.98712
0
LINE
8
BLACK
6
CONTINUOUS
10
30.372
20
4.98712
11
30.3211
21
4.99299
0
LINE
8
BLACK
6
CONTINUOUS
10
30.3211
20
4.99299
11
30.2258
21
5.0406
0
LINE
8
BLACK
6
CONTINUOUS
10
30.2258
20
5.0406
11
30.2078
21
5.05396
0
LINE
8
BLACK
6
CONTINUOUS
10
30.2078
20
5.05396
11
30.2063
21
5.05465
0
LINE
8
BLACK
6
CONTINUOUS
10
30.2063
20
5.05465
11
30.1439
21
5.1171
0
LINE
8
BLACK
6
CONTINUOUS
10
30.1439
20
5.1171
11
30.1439
21
4.42078
0
LINE
8
BLACK
6
CONTINUOUS
10
30.1439
20
4.42078
11
30.3546
21
4.42078
0
LINE
8
BLACK
6
CONTINUOUS
10
30.3546
20
4.42078
11
30.3803
21
4.41626
0
LINE
8
BLACK
6
CONTINUOUS
10
30.3803
20
4.41626
11
30.4196
21
4.38328
0
LINE
8
BLACK
6
CONTINUOUS
10
30.4196
20
4.38328
11
30.4285
21
4.33276
0
LINE
8
BLACK
6
CONTINUOUS
10
30.4285
20
4.33276
11
30.4028
21
4.28833
0
LINE
8
BLACK
6
CONTINUOUS
10
30.4028
20
4.28833
11
30.3546
21
4.27078
0
LINE
8
BLACK
6
CONTINUOUS
10
30.3546
20
4.27078
11
29.7832
21
4.27078
0
LINE
8
BLACK
6
CONTINUOUS
10
29.7832
20
4.27078
11
29.7575
21
4.2753
0
LINE
8
BLACK
6
CONTINUOUS
10
29.7575
20
4.2753
11
29.7182
21
4.30828
0
LINE
8
BLACK
6
CONTINUOUS
10
29.7182
20
4.30828
11
29.7093
21
4.3588
0
LINE
8
BLACK
6
CONTINUOUS
10
29.7093
20
4.3588
11
29.735
21
4.40323
0
LINE
8
BLACK
6
CONTINUOUS
10
29.735
20
4.40323
11
29.7832
21
4.42078
0
LINE
8
BLACK
6
CONTINUOUS
10
29.7832
20
4.42078
11
29.9939
21
4.42078
0
LINE
8
BLACK
6
CONTINUOUS
10
29.9939
20
4.42078
11
29.9939
21
5.34578
0
LINE
8
BLACK
6
CONTINUOUS
10
29.9939
20
5.34578
11
29.9984
21
5.37143
0
LINE
8
BLACK
6
CONTINUOUS
10
29.9984
20
5.37143
11
30.0012
21
5.37474
0
LINE
8
BLACK
6
CONTINUOUS
10
30.0012
20
5.37474
11
30.0017
21
5.37902
0
LINE
8
BLACK
6
CONTINUOUS
10
30.0017
20
5.37902
11
30.0174
21
5.39406
0
LINE
8
BLACK
6
CONTINUOUS
10
30.0174
20
5.39406
11
30.0314
21
5.41073
0
LINE
8
BLACK
6
CONTINUOUS
10
30.0314
20
5.41073
11
30.0356
21
5.41148
0
LINE
8
BLACK
6
CONTINUOUS
10
30.0356
20
5.41148
11
30.0388
21
5.41446
0
LINE
8
BLACK
6
CONTINUOUS
10
30.0388
20
5.41446
11
30.0605
21
5.41586
0
LINE
8
BLACK
6
CONTINUOUS
10
30.0605
20
5.41586
11
30.0819
21
5.41964
0
LINE
8
BLACK
6
CONTINUOUS
10
30.0819
20
5.41964
11
30.0857
21
5.41749
0
LINE
8
BLACK
6
CONTINUOUS
10
31.3167
20
5.41906
11
31.32
21
5.41964
0
LINE
8
BLACK
6
CONTINUOUS
10
31.32
20
5.41964
11
31.3229
21
5.41798
0
LINE
8
BLACK
6
CONTINUOUS
10
31.3229
20
5.41798
11
31.3326
21
5.41626
0
LINE
8
BLACK
6
CONTINUOUS
10
31.3326
20
5.41626
11
31.3476
21
5.40373
0
LINE
8
BLACK
6
CONTINUOUS
10
31.3476
20
5.40373
11
31.3644
21
5.39399
0
LINE
8
BLACK
6
CONTINUOUS
10
31.3644
20
5.39399
11
31.3668
21
5.38763
0
LINE
8
BLACK
6
CONTINUOUS
10
31.3668
20
5.38763
11
31.3719
21
5.38328
0
LINE
8
BLACK
6
CONTINUOUS
10
31.3719
20
5.38328
11
31.3753
21
5.36409
0
LINE
8
BLACK
6
CONTINUOUS
10
31.3753
20
5.36409
11
31.382
21
5.34578
0
LINE
8
BLACK
6
CONTINUOUS
10
31.382
20
5.34578
11
31.382
21
4.34578
0
LINE
8
BLACK
6
CONTINUOUS
10
31.382
20
4.34578
11
31.3775
21
4.32013
0
LINE
8
BLACK
6
CONTINUOUS
10
31.3775
20
4.32013
11
31.3445
21
4.28083
0
LINE
8
BLACK
6
CONTINUOUS
10
31.3445
20
4.28083
11
31.294
21
4.27192
0
LINE
8
BLACK
6
CONTINUOUS
10
31.294
20
4.27192
11
31.2495
21
4.29757
0
LINE
8
BLACK
6
CONTINUOUS
10
31.2495
20
4.29757
11
31.232
21
4.34578
0
LINE
8
BLACK
6
CONTINUOUS
10
31.232
20
4.34578
11
31.232
21
4.74697
0
LINE
8
BLACK
6
CONTINUOUS
10
31.232
20
4.74697
11
31.1079
21
4.74697
0
LINE
8
BLACK
6
CONTINUOUS
10
31.1079
20
4.74697
11
30.797
21
4.30277
0
LINE
8
BLACK
6
CONTINUOUS
10
30.797
20
4.30277
11
30.7786
21
4.28435
0
LINE
8
BLACK
6
CONTINUOUS
10
30.7786
20
4.28435
11
30.729
21
4.27107
0
LINE
8
BLACK
6
CONTINUOUS
10
30.729
20
4.27107
11
30.6825
21
4.29274
0
LINE
8
BLACK
6
CONTINUOUS
10
30.6825
20
4.29274
11
30.6609
21
4.33923
0
LINE
8
BLACK
6
CONTINUOUS
10
30.6609
20
4.33923
11
30.6741
21
4.38879
0
LINE
8
BLACK
6
CONTINUOUS
10
30.6741
20
4.38879
11
30.925
21
4.74716
0
LINE
8
BLACK
6
CONTINUOUS
10
30.925
20
4.74716
11
30.9004
21
4.75149
0
LINE
8
BLACK
6
CONTINUOUS
10
30.9004
20
4.75149
11
30.897
21
4.75438
0
LINE
8
BLACK
6
CONTINUOUS
10
30.897
20
4.75438
11
30.8925
21
4.75489
0
LINE
8
BLACK
6
CONTINUOUS
10
30.8925
20
4.75489
11
30.7973
21
4.80251
0
LINE
8
BLACK
6
CONTINUOUS
10
30.7973
20
4.80251
11
30.7793
21
4.81587
0
LINE
8
BLACK
6
CONTINUOUS
10
30.7793
20
4.81587
11
30.7778
21
4.81656
0
LINE
8
BLACK
6
CONTINUOUS
10
30.7778
20
4.81656
11
30.7302
21
4.86418
0
LINE
8
BLACK
6
CONTINUOUS
10
30.7302
20
4.86418
11
30.7173
21
4.88254
0
LINE
8
BLACK
6
CONTINUOUS
10
30.7173
20
4.88254
11
30.7161
21
4.88367
0
LINE
8
BLACK
6
CONTINUOUS
10
30.7161
20
4.88367
11
30.6685
21
4.97891
0
LINE
8
BLACK
6
CONTINUOUS
10
30.6685
20
4.97891
11
30.6611
21
5.00387
0
LINE
8
BLACK
6
CONTINUOUS
10
30.6611
20
5.00387
11
30.6621
21
5.00823
0
LINE
8
BLACK
6
CONTINUOUS
10
30.6621
20
5.00823
11
30.6606
21
5.01245
0
LINE
8
BLACK
6
CONTINUOUS
10
30.6606
20
5.01245
11
30.6606
21
5.1553
0
LINE
8
BLACK
6
CONTINUOUS
10
30.6606
20
5.1553
11
30.6651
21
5.18096
0
LINE
8
BLACK
6
CONTINUOUS
10
30.6651
20
5.18096
11
30.668
21
5.18439
0
LINE
8
BLACK
6
CONTINUOUS
10
30.668
20
5.18439
11
30.6685
21
5.18885
0
LINE
8
BLACK
6
CONTINUOUS
10
30.6685
20
5.18885
11
30.7161
21
5.28408
0
LINE
8
BLACK
6
CONTINUOUS
10
30.7161
20
5.28408
11
30.7295
21
5.30209
0
LINE
8
BLACK
6
CONTINUOUS
10
30.7295
20
5.30209
11
30.7302
21
5.30358
0
LINE
8
BLACK
6
CONTINUOUS
10
30.7302
20
5.30358
11
30.7778
21
5.35119
0
LINE
8
BLACK
6
CONTINUOUS
10
30.7778
20
5.35119
11
30.7961
21
5.36405
0
LINE
8
BLACK
6
CONTINUOUS
10
30.7961
20
5.36405
11
30.7973
21
5.36524
0
LINE
8
BLACK
6
CONTINUOUS
10
30.7973
20
5.36524
11
30.8925
21
5.41286
0
LINE
8
BLACK
6
CONTINUOUS
10
30.8925
20
5.41286
11
30.9175
21
5.42029
0
LINE
8
BLACK
6
CONTINUOUS
10
30.9175
20
5.42029
11
30.9218
21
5.41925
0
LINE
8
BLACK
6
CONTINUOUS
10
30.9218
20
5.41925
11
30.926
21
5.42078
0
LINE
8
BLACK
6
CONTINUOUS
10
30.926
20
5.42078
11
31.307
21
5.42078
0
LINE
8
BLACK
6
CONTINUOUS
10
31.307
20
5.42078
11
31.3167
21
5.41906
0
LINE
8
BLACK
6
CONTINUOUS
10
30.8752
20
5.23652
11
30.8448
21
5.20612
0
LINE
8
BLACK
6
CONTINUOUS
10
30.8448
20
5.20612
11
30.8106
21
5.1376
0
LINE
8
BLACK
6
CONTINUOUS
10
30.8106
20
5.1376
11
30.8106
21
5.03015
0
LINE
8
BLACK
6
CONTINUOUS
10
30.8106
20
5.03015
11
30.8448
21
4.96164
0
LINE
8
BLACK
6
CONTINUOUS
10
30.8448
20
4.96164
11
30.8752
21
4.93123
0
LINE
8
BLACK
6
CONTINUOUS
10
30.8752
20
4.93123
11
30.9437
21
4.89697
0
LINE
8
BLACK
6
CONTINUOUS
10
30.9437
20
4.89697
11
31.232
21
4.89697
0
LINE
8
BLACK
6
CONTINUOUS
10
31.232
20
4.89697
11
31.232
21
5.27078
0
LINE
8
BLACK
6
CONTINUOUS
10
31.232
20
5.27078
11
30.9437
21
5.27078
0
LINE
8
BLACK
6
CONTINUOUS
10
30.9437
20
5.27078
11
30.8752
21
5.23652
0
LINE
8
BLACK
6
CONTINUOUS
10
32.7081
20
4.55193
11
32.7256
21
4.5095
0
LINE
8
BLACK
6
CONTINUOUS
10
32.7256
20
4.5095
11
32.7081
21
4.46707
0
LINE
8
BLACK
6
CONTINUOUS
10
32.7081
20
4.46707
11
32.6656
21
4.4495
0
LINE
8
BLACK
6
CONTINUOUS
10
32.6656
20
4.4495
11
32.3584
21
4.4495
0
LINE
8
BLACK
6
CONTINUOUS
10
32.3584
20
4.4495
11
32.3159
21
4.46707
0
LINE
8
BLACK
6
CONTINUOUS
10
32.3159
20
4.46707
11
32.2984
21
4.5095
0
LINE
8
BLACK
6
CONTINUOUS
10
32.2984
20
4.5095
11
32.3159
21
4.55193
0
LINE
8
BLACK
6
CONTINUOUS
10
32.3159
20
4.55193
11
32.3584
21
4.5695
0
LINE
8
BLACK
6
CONTINUOUS
10
32.3584
20
4.5695
11
32.6656
21
4.5695
0
LINE
8
BLACK
6
CONTINUOUS
10
32.6656
20
4.5695
11
32.7081
21
4.55193
0
LINE
8
BLACK
6
CONTINUOUS
10
19.9623
20
5.0538
11
19.9798
21
5.01138
0
LINE
8
BLACK
6
CONTINUOUS
10
19.9798
20
5.01138
11
19.9623
21
4.96895
0
LINE
8
BLACK
6
CONTINUOUS
10
19.9623
20
4.96895
11
19.9198
21
4.95137
0
LINE
8
BLACK
6
CONTINUOUS
10
19.9198
20
4.95137
11
19.7042
21
4.95137
0
LINE
8
BLACK
6
CONTINUOUS
10
19.7042
20
4.95137
11
19.6617
21
4.96895
0
LINE
8
BLACK
6
CONTINUOUS
10
19.6617
20
4.96895
11
19.6442
21
5.01138
0
LINE
8
BLACK
6
CONTINUOUS
10
19.6442
20
5.01138
11
19.6617
21
5.0538
0
LINE
8
BLACK
6
CONTINUOUS
10
19.6617
20
5.0538
11
19.7042
21
5.07137
0
LINE
8
BLACK
6
CONTINUOUS
10
19.7042
20
5.07137
11
19.9198
21
5.07137
0
LINE
8
BLACK
6
CONTINUOUS
10
19.9198
20
5.07137
11
19.9623
21
5.0538
0
LINE
8
BLACK
6
CONTINUOUS
10
32.7081
20
5.31193
11
32.7256
21
5.2695
0
LINE
8
BLACK
6
CONTINUOUS
10
32.7256
20
5.2695
11
32.7081
21
5.22707
0
LINE
8
BLACK
6
CONTINUOUS
10
32.7081
20
5.22707
11
32.6656
21
5.2095
0
LINE
8
BLACK
6
CONTINUOUS
10
32.6656
20
5.2095
11
32.3584
21
5.2095
0
LINE
8
BLACK
6
CONTINUOUS
10
32.3584
20
5.2095
11
32.3159
21
5.22707
0
LINE
8
BLACK
6
CONTINUOUS
10
32.3159
20
5.22707
11
32.2984
21
5.2695
0
LINE
8
BLACK
6
CONTINUOUS
10
32.2984
20
5.2695
11
32.3159
21
5.31193
0
LINE
8
BLACK
6
CONTINUOUS
10
32.3159
20
5.31193
11
32.3584
21
5.3295
0
LINE
8
BLACK
6
CONTINUOUS
10
32.3584
20
5.3295
11
32.6656
21
5.3295
0
LINE
8
BLACK
6
CONTINUOUS
10
32.6656
20
5.3295
11
32.7081
21
5.31193
0
LINE
8
BLACK
6
CONTINUOUS
10
30.0538
20
6.68749
11
30.0582
21
6.68776
0
LINE
8
BLACK
6
CONTINUOUS
10
30.0582
20
6.68776
11
30.0757
21
6.67487
0
LINE
8
BLACK
6
CONTINUOUS
10
30.0757
20
6.67487
11
30.0945
21
6.66399
0
LINE
8
BLACK
6
CONTINUOUS
10
30.0945
20
6.66399
11
30.096
21
6.65994
0
LINE
8
BLACK
6
CONTINUOUS
10
30.096
20
6.65994
11
30.0995
21
6.65738
0
LINE
8
BLACK
6
CONTINUOUS
10
30.0995
20
6.65738
11
30.1906
21
6.52071
0
LINE
8
BLACK
6
CONTINUOUS
10
30.1906
20
6.52071
11
30.272
21
6.43932
0
LINE
8
BLACK
6
CONTINUOUS
10
30.272
20
6.43932
11
30.3563
21
6.39715
0
LINE
8
BLACK
6
CONTINUOUS
10
30.3563
20
6.39715
11
30.3773
21
6.38163
0
LINE
8
BLACK
6
CONTINUOUS
10
30.3773
20
6.38163
11
30.3977
21
6.33456
0
LINE
8
BLACK
6
CONTINUOUS
10
30.3977
20
6.33456
11
30.383
21
6.28539
0
LINE
8
BLACK
6
CONTINUOUS
10
30.383
20
6.28539
11
30.3402
21
6.25712
0
LINE
8
BLACK
6
CONTINUOUS
10
30.3402
20
6.25712
11
30.2893
21
6.26298
0
LINE
8
BLACK
6
CONTINUOUS
10
30.2893
20
6.26298
11
30.194
21
6.3106
0
LINE
8
BLACK
6
CONTINUOUS
10
30.194
20
6.3106
11
30.176
21
6.32396
0
LINE
8
BLACK
6
CONTINUOUS
10
30.176
20
6.32396
11
30.1745
21
6.32465
0
LINE
8
BLACK
6
CONTINUOUS
10
30.1745
20
6.32465
11
30.1121
21
6.3871
0
LINE
8
BLACK
6
CONTINUOUS
10
30.1121
20
6.3871
11
30.1121
21
5.69078
0
LINE
8
BLACK
6
CONTINUOUS
10
30.1121
20
5.69078
11
30.3228
21
5.69078
0
LINE
8
BLACK
6
CONTINUOUS
10
30.3228
20
5.69078
11
30.3485
21
5.68626
0
LINE
8
BLACK
6
CONTINUOUS
10
30.3485
20
5.68626
11
30.3878
21
5.65328
0
LINE
8
BLACK
6
CONTINUOUS
10
30.3878
20
5.65328
11
30.3967
21
5.60276
0
LINE
8
BLACK
6
CONTINUOUS
10
30.3967
20
5.60276
11
30.371
21
5.55833
0
LINE
8
BLACK
6
CONTINUOUS
10
30.371
20
5.55833
11
30.3228
21
5.54078
0
LINE
8
BLACK
6
CONTINUOUS
10
30.3228
20
5.54078
11
29.7514
21
5.54078
0
LINE
8
BLACK
6
CONTINUOUS
10
29.7514
20
5.54078
11
29.7257
21
5.5453
0
LINE
8
BLACK
6
CONTINUOUS
10
29.7257
20
5.5453
11
29.6864
21
5.57828
0
LINE
8
BLACK
6
CONTINUOUS
10
29.6864
20
5.57828
11
29.6775
21
5.6288
0
LINE
8
BLACK
6
CONTINUOUS
10
29.6775
20
5.6288
11
29.7032
21
5.67323
0
LINE
8
BLACK
6
CONTINUOUS
10
29.7032
20
5.67323
11
29.7514
21
5.69078
0
LINE
8
BLACK
6
CONTINUOUS
10
29.7514
20
5.69078
11
29.9621
21
5.69078
0
LINE
8
BLACK
6
CONTINUOUS
10
29.9621
20
5.69078
11
29.9621
21
6.61578
0
LINE
8
BLACK
6
CONTINUOUS
10
29.9621
20
6.61578
11
29.9666
21
6.64143
0
LINE
8
BLACK
6
CONTINUOUS
10
29.9666
20
6.64143
11
29.9694
21
6.64474
0
LINE
8
BLACK
6
CONTINUOUS
10
29.9694
20
6.64474
11
29.9699
21
6.64902
0
LINE
8
BLACK
6
CONTINUOUS
10
29.9699
20
6.64902
11
29.9856
21
6.66406
0
LINE
8
BLACK
6
CONTINUOUS
10
29.9856
20
6.66406
11
29.9996
21
6.68073
0
LINE
8
BLACK
6
CONTINUOUS
10
29.9996
20
6.68073
11
30.0038
21
6.68148
0
LINE
8
BLACK
6
CONTINUOUS
10
30.0038
20
6.68148
11
30.007
21
6.68446
0
LINE
8
BLACK
6
CONTINUOUS
10
30.007
20
6.68446
11
30.0287
21
6.68586
0
LINE
8
BLACK
6
CONTINUOUS
10
30.0287
20
6.68586
11
30.0501
21
6.68964
0
LINE
8
BLACK
6
CONTINUOUS
10
30.0501
20
6.68964
11
30.0538
21
6.68749
0
LINE
8
BLACK
6
CONTINUOUS
10
31.0116
20
6.68689
11
31.0132
21
6.68693
0
LINE
8
BLACK
6
CONTINUOUS
10
31.0132
20
6.68693
11
31.156
21
6.63931
0
LINE
8
BLACK
6
CONTINUOUS
10
31.156
20
6.63931
11
31.1789
21
6.62691
0
LINE
8
BLACK
6
CONTINUOUS
10
31.1789
20
6.62691
11
31.1813
21
6.62309
0
LINE
8
BLACK
6
CONTINUOUS
10
31.1813
20
6.62309
11
31.1854
21
6.62119
0
LINE
8
BLACK
6
CONTINUOUS
10
31.1854
20
6.62119
11
31.2806
21
6.52596
0
LINE
8
BLACK
6
CONTINUOUS
10
31.2806
20
6.52596
11
31.2935
21
6.50759
0
LINE
8
BLACK
6
CONTINUOUS
10
31.2935
20
6.50759
11
31.2946
21
6.50646
0
LINE
8
BLACK
6
CONTINUOUS
10
31.2946
20
6.50646
11
31.3423
21
6.41123
0
LINE
8
BLACK
6
CONTINUOUS
10
31.3423
20
6.41123
11
31.346
21
6.39882
0
LINE
8
BLACK
6
CONTINUOUS
10
31.346
20
6.39882
11
31.3479
21
6.39588
0
LINE
8
BLACK
6
CONTINUOUS
10
31.3479
20
6.39588
11
31.3956
21
6.2054
0
LINE
8
BLACK
6
CONTINUOUS
10
31.3956
20
6.2054
11
31.3966
21
6.19047
0
LINE
8
BLACK
6
CONTINUOUS
10
31.3966
20
6.19047
11
31.3978
21
6.18721
0
LINE
8
BLACK
6
CONTINUOUS
10
31.3978
20
6.18721
11
31.3978
21
6.04435
0
LINE
8
BLACK
6
CONTINUOUS
10
31.3978
20
6.04435
11
31.3952
21
6.02961
0
LINE
8
BLACK
6
CONTINUOUS
10
31.3952
20
6.02961
11
31.3956
21
6.02616
0
LINE
8
BLACK
6
CONTINUOUS
10
31.3956
20
6.02616
11
31.3479
21
5.83569
0
LINE
8
BLACK
6
CONTINUOUS
10
31.3479
20
5.83569
11
31.3427
21
5.82386
0
LINE
8
BLACK
6
CONTINUOUS
10
31.3427
20
5.82386
11
31.3423
21
5.82034
0
LINE
8
BLACK
6
CONTINUOUS
10
31.3423
20
5.82034
11
31.2946
21
5.7251
0
LINE
8
BLACK
6
CONTINUOUS
10
31.2946
20
5.7251
11
31.2813
21
5.70709
0
LINE
8
BLACK
6
CONTINUOUS
10
31.2813
20
5.70709
11
31.2806
21
5.70561
0
LINE
8
BLACK
6
CONTINUOUS
10
31.2806
20
5.70561
11
31.1854
21
5.61037
0
LINE
8
BLACK
6
CONTINUOUS
10
31.1854
20
5.61037
11
31.164
21
5.59543
0
LINE
8
BLACK
6
CONTINUOUS
10
31.164
20
5.59543
11
31.1596
21
5.59504
0
LINE
8
BLACK
6
CONTINUOUS
10
31.1596
20
5.59504
11
31.156
21
5.59225
0
LINE
8
BLACK
6
CONTINUOUS
10
31.156
20
5.59225
11
31.0132
21
5.54463
0
LINE
8
BLACK
6
CONTINUOUS
10
31.0132
20
5.54463
11
30.991
21
5.54134
0
LINE
8
BLACK
6
CONTINUOUS
10
30.991
20
5.54134
11
30.9895
21
5.54078
0
LINE
8
BLACK
6
CONTINUOUS
10
30.9895
20
5.54078
11
30.8942
21
5.54078
0
LINE
8
BLACK
6
CONTINUOUS
10
30.8942
20
5.54078
11
30.8721
21
5.54467
0
LINE
8
BLACK
6
CONTINUOUS
10
30.8721
20
5.54467
11
30.8705
21
5.54463
0
LINE
8
BLACK
6
CONTINUOUS
10
30.8705
20
5.54463
11
30.7277
21
5.59225
0
LINE
8
BLACK
6
CONTINUOUS
10
30.7277
20
5.59225
11
30.7048
21
5.60465
0
LINE
8
BLACK
6
CONTINUOUS
10
30.7048
20
5.60465
11
30.7024
21
5.60847
0
LINE
8
BLACK
6
CONTINUOUS
10
30.7024
20
5.60847
11
30.6983
21
5.61037
0
LINE
8
BLACK
6
CONTINUOUS
10
30.6983
20
5.61037
11
30.6507
21
5.65799
0
LINE
8
BLACK
6
CONTINUOUS
10
30.6507
20
5.65799
11
30.6358
21
5.67932
0
LINE
8
BLACK
6
CONTINUOUS
10
30.6358
20
5.67932
11
30.6313
21
5.73043
0
LINE
8
BLACK
6
CONTINUOUS
10
30.6313
20
5.73043
11
30.6607
21
5.77246
0
LINE
8
BLACK
6
CONTINUOUS
10
30.6607
20
5.77246
11
30.7103
21
5.78573
0
LINE
8
BLACK
6
CONTINUOUS
10
30.7103
20
5.78573
11
30.7568
21
5.76405
0
LINE
8
BLACK
6
CONTINUOUS
10
30.7568
20
5.76405
11
30.7919
21
5.72895
0
LINE
8
BLACK
6
CONTINUOUS
10
30.7919
20
5.72895
11
30.9064
21
5.69078
0
LINE
8
BLACK
6
CONTINUOUS
10
30.9064
20
5.69078
11
30.9773
21
5.69078
0
LINE
8
BLACK
6
CONTINUOUS
10
30.9773
20
5.69078
11
31.0918
21
5.72895
0
LINE
8
BLACK
6
CONTINUOUS
10
31.0918
20
5.72895
11
31.1659
21
5.80307
0
LINE
8
BLACK
6
CONTINUOUS
10
31.1659
20
5.80307
11
31.2044
21
5.88005
0
LINE
8
BLACK
6
CONTINUOUS
10
31.2044
20
5.88005
11
31.2478
21
6.05359
0
LINE
8
BLACK
6
CONTINUOUS
10
31.2478
20
6.05359
11
31.2478
21
6.17798
0
LINE
8
BLACK
6
CONTINUOUS
10
31.2478
20
6.17798
11
31.2044
21
6.35151
0
LINE
8
BLACK
6
CONTINUOUS
10
31.2044
20
6.35151
11
31.1659
21
6.4285
0
LINE
8
BLACK
6
CONTINUOUS
10
31.1659
20
6.4285
11
31.0918
21
6.50261
0
LINE
8
BLACK
6
CONTINUOUS
10
31.0918
20
6.50261
11
30.9773
21
6.54078
0
LINE
8
BLACK
6
CONTINUOUS
10
30.9773
20
6.54078
11
30.9064
21
6.54078
0
LINE
8
BLACK
6
CONTINUOUS
10
30.9064
20
6.54078
11
30.7919
21
6.50261
0
LINE
8
BLACK
6
CONTINUOUS
10
30.7919
20
6.50261
11
30.7568
21
6.46751
0
LINE
8
BLACK
6
CONTINUOUS
10
30.7568
20
6.46751
11
30.7355
21
6.45257
0
LINE
8
BLACK
6
CONTINUOUS
10
30.7355
20
6.45257
11
30.6843
21
6.4481
0
LINE
8
BLACK
6
CONTINUOUS
10
30.6843
20
6.4481
11
30.6423
21
6.47752
0
LINE
8
BLACK
6
CONTINUOUS
10
30.6423
20
6.47752
11
30.629
21
6.52708
0
LINE
8
BLACK
6
CONTINUOUS
10
30.629
20
6.52708
11
30.6507
21
6.57358
0
LINE
8
BLACK
6
CONTINUOUS
10
30.6507
20
6.57358
11
30.6983
21
6.62119
0
LINE
8
BLACK
6
CONTINUOUS
10
30.6983
20
6.62119
11
30.7197
21
6.63613
0
LINE
8
BLACK
6
CONTINUOUS
10
30.7197
20
6.63613
11
30.7241
21
6.63653
0
LINE
8
BLACK
6
CONTINUOUS
10
30.7241
20
6.63653
11
30.7277
21
6.63931
0
LINE
8
BLACK
6
CONTINUOUS
10
30.7277
20
6.63931
11
30.8705
21
6.68693
0
LINE
8
BLACK
6
CONTINUOUS
10
30.8705
20
6.68693
11
30.8927
21
6.69022
0
LINE
8
BLACK
6
CONTINUOUS
10
30.8927
20
6.69022
11
30.8942
21
6.69078
0
LINE
8
BLACK
6
CONTINUOUS
10
30.8942
20
6.69078
11
30.9895
21
6.69078
0
LINE
8
BLACK
6
CONTINUOUS
10
30.9895
20
6.69078
11
31.0116
21
6.68689
0
LINE
8
BLACK
6
CONTINUOUS
10
29.1716
20
6.7273
11
29.2035
21
6.68712
0
LINE
8
BLACK
6
CONTINUOUS
10
29.2035
20
6.68712
11
29.4416
21
5.97283
0
LINE
8
BLACK
6
CONTINUOUS
10
29.4416
20
5.97283
11
29.4454
21
5.94707
0
LINE
8
BLACK
6
CONTINUOUS
10
29.4454
20
5.94707
11
29.4433
21
5.94174
0
LINE
8
BLACK
6
CONTINUOUS
10
29.4433
20
5.94174
11
29.4443
21
5.93609
0
LINE
8
BLACK
6
CONTINUOUS
10
29.4443
20
5.93609
11
29.4341
21
5.91838
0
LINE
8
BLACK
6
CONTINUOUS
10
29.4341
20
5.91838
11
29.4265
21
5.89935
0
LINE
8
BLACK
6
CONTINUOUS
10
29.4265
20
5.89935
11
29.4215
21
5.89663
0
LINE
8
BLACK
6
CONTINUOUS
10
29.4215
20
5.89663
11
29.4186
21
5.89166
0
LINE
8
BLACK
6
CONTINUOUS
10
29.4186
20
5.89166
11
29.3994
21
5.88467
0
LINE
8
BLACK
6
CONTINUOUS
10
29.3994
20
5.88467
11
29.3814
21
5.87493
0
LINE
8
BLACK
6
CONTINUOUS
10
29.3814
20
5.87493
11
29.3758
21
5.87608
0
LINE
8
BLACK
6
CONTINUOUS
10
29.3758
20
5.87608
11
29.3704
21
5.87411
0
LINE
8
BLACK
6
CONTINUOUS
10
29.3704
20
5.87411
11
28.9692
21
5.87411
0
LINE
8
BLACK
6
CONTINUOUS
10
28.9692
20
5.87411
11
28.9692
21
5.61578
0
LINE
8
BLACK
6
CONTINUOUS
10
28.9692
20
5.61578
11
28.9647
21
5.59013
0
LINE
8
BLACK
6
CONTINUOUS
10
28.9647
20
5.59013
11
28.9317
21
5.55083
0
LINE
8
BLACK
6
CONTINUOUS
10
28.9317
20
5.55083
11
28.8812
21
5.54192
0
LINE
8
BLACK
6
CONTINUOUS
10
28.8812
20
5.54192
11
28.8368
21
5.56757
0
LINE
8
BLACK
6
CONTINUOUS
10
28.8368
20
5.56757
11
28.8192
21
5.61578
0
LINE
8
BLACK
6
CONTINUOUS
10
28.8192
20
5.61578
11
28.8192
21
5.87411
0
LINE
8
BLACK
6
CONTINUOUS
10
28.8192
20
5.87411
11
28.7514
21
5.87411
0
LINE
8
BLACK
6
CONTINUOUS
10
28.7514
20
5.87411
11
28.7257
21
5.87864
0
LINE
8
BLACK
6
CONTINUOUS
10
28.7257
20
5.87864
11
28.6864
21
5.91161
0
LINE
8
BLACK
6
CONTINUOUS
10
28.6864
20
5.91161
11
28.6775
21
5.96214
0
LINE
8
BLACK
6
CONTINUOUS
10
28.6775
20
5.96214
11
28.7032
21
6.00657
0
LINE
8
BLACK
6
CONTINUOUS
10
28.7032
20
6.00657
11
28.7514
21
6.02412
0
LINE
8
BLACK
6
CONTINUOUS
10
28.7514
20
6.02412
11
28.8192
21
6.02412
0
LINE
8
BLACK
6
CONTINUOUS
10
28.8192
20
6.02412
11
28.8192
21
6.28245
0
LINE
8
BLACK
6
CONTINUOUS
10
28.8192
20
6.28245
11
28.8238
21
6.3081
0
LINE
8
BLACK
6
CONTINUOUS
10
28.8238
20
6.3081
11
28.8567
21
6.3474
0
LINE
8
BLACK
6
CONTINUOUS
10
28.8567
20
6.3474
11
28.9073
21
6.35631
0
LINE
8
BLACK
6
CONTINUOUS
10
28.9073
20
6.35631
11
28.9517
21
6.33066
0
LINE
8
BLACK
6
CONTINUOUS
10
28.9517
20
6.33066
11
28.9692
21
6.28245
0
LINE
8
BLACK
6
CONTINUOUS
10
28.9692
20
6.28245
11
28.9692
21
6.02412
0
LINE
8
BLACK
6
CONTINUOUS
10
28.9692
20
6.02412
11
29.2664
21
6.02412
0
LINE
8
BLACK
6
CONTINUOUS
10
29.2664
20
6.02412
11
29.0612
21
6.63968
0
LINE
8
BLACK
6
CONTINUOUS
10
29.0612
20
6.63968
11
29.0574
21
6.66545
0
LINE
8
BLACK
6
CONTINUOUS
10
29.0574
20
6.66545
11
29.0762
21
6.71316
0
LINE
8
BLACK
6
CONTINUOUS
10
29.0762
20
6.71316
11
29.1213
21
6.73759
0
LINE
8
BLACK
6
CONTINUOUS
10
29.1213
20
6.73759
11
29.1716
21
6.7273
0
LINE
8
BLACK
6
CONTINUOUS
10
32.6623
20
5.84193
11
32.6798
21
5.7995
0
LINE
8
BLACK
6
CONTINUOUS
10
32.6798
20
5.7995
11
32.6623
21
5.75707
0
LINE
8
BLACK
6
CONTINUOUS
10
32.6623
20
5.75707
11
32.6198
21
5.7395
0
LINE
8
BLACK
6
CONTINUOUS
10
32.6198
20
5.7395
11
32.4042
21
5.7395
0
LINE
8
BLACK
6
CONTINUOUS
10
32.4042
20
5.7395
11
32.3617
21
5.75707
0
LINE
8
BLACK
6
CONTINUOUS
10
32.3617
20
5.75707
11
32.3442
21
5.7995
0
LINE
8
BLACK
6
CONTINUOUS
10
32.3442
20
5.7995
11
32.3617
21
5.84193
0
LINE
8
BLACK
6
CONTINUOUS
10
32.3617
20
5.84193
11
32.4042
21
5.8595
0
LINE
8
BLACK
6
CONTINUOUS
10
32.4042
20
5.8595
11
32.6198
21
5.8595
0
LINE
8
BLACK
6
CONTINUOUS
10
32.6198
20
5.8595
11
32.6623
21
5.84193
0
LINE
8
BLACK
6
CONTINUOUS
10
32.6623
20
6.56193
11
32.6798
21
6.5195
0
LINE
8
BLACK
6
CONTINUOUS
10
32.6798
20
6.5195
11
32.6623
21
6.47707
0
LINE
8
BLACK
6
CONTINUOUS
10
32.6623
20
6.47707
11
32.6198
21
6.4595
0
LINE
8
BLACK
6
CONTINUOUS
10
32.6198
20
6.4595
11
32.4042
21
6.4595
0
LINE
8
BLACK
6
CONTINUOUS
10
32.4042
20
6.4595
11
32.3617
21
6.47707
0
LINE
8
BLACK
6
CONTINUOUS
10
32.3617
20
6.47707
11
32.3442
21
6.5195
0
LINE
8
BLACK
6
CONTINUOUS
10
32.3442
20
6.5195
11
32.3617
21
6.56193
0
LINE
8
BLACK
6
CONTINUOUS
10
32.3617
20
6.56193
11
32.4042
21
6.5795
0
LINE
8
BLACK
6
CONTINUOUS
10
32.4042
20
6.5795
11
32.6198
21
6.5795
0
LINE
8
BLACK
6
CONTINUOUS
10
32.6198
20
6.5795
11
32.6623
21
6.56193
0
LINE
8
BLACK
6
CONTINUOUS
10
11.7689
20
7.70609
11
11.7706
21
7.70657
0
LINE
8
BLACK
6
CONTINUOUS
10
11.7706
20
7.70657
11
11.7734
21
7.70529
0
LINE
8
BLACK
6
CONTINUOUS
10
11.7734
20
7.70529
11
11.7906
21
7.70226
0
LINE
8
BLACK
6
CONTINUOUS
10
11.7906
20
7.70226
11
11.8028
21
7.69202
0
LINE
8
BLACK
6
CONTINUOUS
10
11.8028
20
7.69202
11
11.8174
21
7.68547
0
LINE
8
BLACK
6
CONTINUOUS
10
11.8174
20
7.68547
11
11.8219
21
7.67602
0
LINE
8
BLACK
6
CONTINUOUS
10
11.8219
20
7.67602
11
11.8299
21
7.66928
0
LINE
8
BLACK
6
CONTINUOUS
10
11.8299
20
7.66928
11
11.8327
21
7.6536
0
LINE
8
BLACK
6
CONTINUOUS
10
11.8327
20
7.6536
11
11.8396
21
7.63924
0
LINE
8
BLACK
6
CONTINUOUS
10
11.8396
20
7.63924
11
11.8872
21
7.16305
0
LINE
8
BLACK
6
CONTINUOUS
10
11.8872
20
7.16305
11
11.8853
21
7.13708
0
LINE
8
BLACK
6
CONTINUOUS
10
11.8853
20
7.13708
11
11.885
21
7.13667
0
LINE
8
BLACK
6
CONTINUOUS
10
11.885
20
7.13667
11
11.8851
21
7.13618
0
LINE
8
BLACK
6
CONTINUOUS
10
11.8851
20
7.13618
11
11.8706
21
7.11556
0
LINE
8
BLACK
6
CONTINUOUS
10
11.8706
20
7.11556
11
11.8564
21
7.09469
0
LINE
8
BLACK
6
CONTINUOUS
10
11.8564
20
7.09469
11
11.8559
21
7.09456
0
LINE
8
BLACK
6
CONTINUOUS
10
11.8559
20
7.09456
11
11.8556
21
7.09415
0
LINE
8
BLACK
6
CONTINUOUS
10
11.8556
20
7.09415
11
11.8313
21
7.08763
0
LINE
8
BLACK
6
CONTINUOUS
10
11.8313
20
7.08763
11
11.807
21
7.0808
0
LINE
8
BLACK
6
CONTINUOUS
10
11.807
20
7.0808
11
11.8066
21
7.081
0
LINE
8
BLACK
6
CONTINUOUS
10
11.8066
20
7.081
11
11.8061
21
7.08088
0
LINE
8
BLACK
6
CONTINUOUS
10
11.8061
20
7.08088
11
11.7833
21
7.09152
0
LINE
8
BLACK
6
CONTINUOUS
10
11.7833
20
7.09152
11
11.7602
21
7.1019
0
LINE
8
BLACK
6
CONTINUOUS
10
11.7602
20
7.1019
11
11.76
21
7.10235
0
LINE
8
BLACK
6
CONTINUOUS
10
11.76
20
7.10235
11
11.7596
21
7.10256
0
LINE
8
BLACK
6
CONTINUOUS
10
11.7596
20
7.10256
11
11.7206
21
7.14157
0
LINE
8
BLACK
6
CONTINUOUS
10
11.7206
20
7.14157
11
11.6521
21
7.17583
0
LINE
8
BLACK
6
CONTINUOUS
10
11.6521
20
7.17583
11
11.4494
21
7.17583
0
LINE
8
BLACK
6
CONTINUOUS
10
11.4494
20
7.17583
11
11.3808
21
7.14157
0
LINE
8
BLACK
6
CONTINUOUS
10
11.3808
20
7.14157
11
11.3504
21
7.11116
0
LINE
8
BLACK
6
CONTINUOUS
10
11.3504
20
7.11116
11
11.3162
21
7.04265
0
LINE
8
BLACK
6
CONTINUOUS
10
11.3162
20
7.04265
11
11.3162
21
6.83996
0
LINE
8
BLACK
6
CONTINUOUS
10
11.3162
20
6.83996
11
11.3504
21
6.77145
0
LINE
8
BLACK
6
CONTINUOUS
10
11.3504
20
6.77145
11
11.3808
21
6.74104
0
LINE
8
BLACK
6
CONTINUOUS
10
11.3808
20
6.74104
11
11.4494
21
6.70678
0
LINE
8
BLACK
6
CONTINUOUS
10
11.4494
20
6.70678
11
11.6521
21
6.70678
0
LINE
8
BLACK
6
CONTINUOUS
10
11.6521
20
6.70678
11
11.7206
21
6.74104
0
LINE
8
BLACK
6
CONTINUOUS
10
11.7206
20
6.74104
11
11.7596
21
6.78005
0
LINE
8
BLACK
6
CONTINUOUS
10
11.7596
20
6.78005
11
11.7809
21
6.79499
0
LINE
8
BLACK
6
CONTINUOUS
10
11.7809
20
6.79499
11
11.832
21
6.79946
0
LINE
8
BLACK
6
CONTINUOUS
10
11.832
20
6.79946
11
11.874
21
6.77004
0
LINE
8
BLACK
6
CONTINUOUS
10
11.874
20
6.77004
11
11.8873
21
6.72048
0
LINE
8
BLACK
6
CONTINUOUS
10
11.8873
20
6.72048
11
11.8656
21
6.67399
0
LINE
8
BLACK
6
CONTINUOUS
10
11.8656
20
6.67399
11
11.818
21
6.62637
0
LINE
8
BLACK
6
CONTINUOUS
10
11.818
20
6.62637
11
11.7997
21
6.61351
0
LINE
8
BLACK
6
CONTINUOUS
10
11.7997
20
6.61351
11
11.7985
21
6.61232
0
LINE
8
BLACK
6
CONTINUOUS
10
11.7985
20
6.61232
11
11.7033
21
6.5647
0
LINE
8
BLACK
6
CONTINUOUS
10
11.7033
20
6.5647
11
11.6783
21
6.55727
0
LINE
8
BLACK
6
CONTINUOUS
10
11.6783
20
6.55727
11
11.674
21
6.55831
0
LINE
8
BLACK
6
CONTINUOUS
10
11.674
20
6.55831
11
11.6698
21
6.55678
0
LINE
8
BLACK
6
CONTINUOUS
10
11.6698
20
6.55678
11
11.4317
21
6.55678
0
LINE
8
BLACK
6
CONTINUOUS
10
11.4317
20
6.55678
11
11.406
21
6.5613
0
LINE
8
BLACK
6
CONTINUOUS
10
11.406
20
6.5613
11
11.4026
21
6.56419
0
LINE
8
BLACK
6
CONTINUOUS
10
11.4026
20
6.56419
11
11.3981
21
6.5647
0
LINE
8
BLACK
6
CONTINUOUS
10
11.3981
20
6.5647
11
11.3029
21
6.61232
0
LINE
8
BLACK
6
CONTINUOUS
10
11.3029
20
6.61232
11
11.2849
21
6.62568
0
LINE
8
BLACK
6
CONTINUOUS
10
11.2849
20
6.62568
11
11.2834
21
6.62637
0
LINE
8
BLACK
6
CONTINUOUS
10
11.2834
20
6.62637
11
11.2358
21
6.67399
0
LINE
8
BLACK
6
CONTINUOUS
10
11.2358
20
6.67399
11
11.2229
21
6.69235
0
LINE
8
BLACK
6
CONTINUOUS
10
11.2229
20
6.69235
11
11.2217
21
6.69348
0
LINE
8
BLACK
6
CONTINUOUS
10
11.2217
20
6.69348
11
11.1741
21
6.78872
0
LINE
8
BLACK
6
CONTINUOUS
10
11.1741
20
6.78872
11
11.1667
21
6.81368
0
LINE
8
BLACK
6
CONTINUOUS
10
11.1667
20
6.81368
11
11.1677
21
6.81804
0
LINE
8
BLACK
6
CONTINUOUS
10
11.1677
20
6.81804
11
11.1662
21
6.82226
0
LINE
8
BLACK
6
CONTINUOUS
10
11.1662
20
6.82226
11
11.1662
21
7.06035
0
LINE
8
BLACK
6
CONTINUOUS
10
11.1662
20
7.06035
11
11.1707
21
7.08601
0
LINE
8
BLACK
6
CONTINUOUS
10
11.1707
20
7.08601
11
11.1736
21
7.08944
0
LINE
8
BLACK
6
CONTINUOUS
10
11.1736
20
7.08944
11
11.1741
21
7.09389
0
LINE
8
BLACK
6
CONTINUOUS
10
11.1741
20
7.09389
11
11.2217
21
7.18913
0
LINE
8
BLACK
6
CONTINUOUS
10
11.2217
20
7.18913
11
11.2351
21
7.20714
0
LINE
8
BLACK
6
CONTINUOUS
10
11.2351
20
7.20714
11
11.2358
21
7.20862
0
LINE
8
BLACK
6
CONTINUOUS
10
11.2358
20
7.20862
11
11.2834
21
7.25624
0
LINE
8
BLACK
6
CONTINUOUS
10
11.2834
20
7.25624
11
11.3018
21
7.2691
0
LINE
8
BLACK
6
CONTINUOUS
10
11.3018
20
7.2691
11
11.3029
21
7.27029
0
LINE
8
BLACK
6
CONTINUOUS
10
11.3029
20
7.27029
11
11.3981
21
7.31791
0
LINE
8
BLACK
6
CONTINUOUS
10
11.3981
20
7.31791
11
11.4231
21
7.32534
0
LINE
8
BLACK
6
CONTINUOUS
10
11.4231
20
7.32534
11
11.4274
21
7.3243
0
LINE
8
BLACK
6
CONTINUOUS
10
11.4274
20
7.3243
11
11.4317
21
7.32583
0
LINE
8
BLACK
6
CONTINUOUS
10
11.4317
20
7.32583
11
11.6698
21
7.32583
0
LINE
8
BLACK
6
CONTINUOUS
10
11.6698
20
7.32583
11
11.6954
21
7.32131
0
LINE
8
BLACK
6
CONTINUOUS
10
11.6954
20
7.32131
11
11.6988
21
7.31842
0
LINE
8
BLACK
6
CONTINUOUS
10
11.6988
20
7.31842
11
11.7033
21
7.31791
0
LINE
8
BLACK
6
CONTINUOUS
10
11.7033
20
7.31791
11
11.7219
21
7.30859
0
LINE
8
BLACK
6
CONTINUOUS
10
11.7219
20
7.30859
11
11.6971
21
7.55678
0
LINE
8
BLACK
6
CONTINUOUS
10
11.6971
20
7.55678
11
11.2888
21
7.55678
0
LINE
8
BLACK
6
CONTINUOUS
10
11.2888
20
7.55678
11
11.2632
21
7.5613
0
LINE
8
BLACK
6
CONTINUOUS
10
11.2632
20
7.5613
11
11.2239
21
7.59428
0
LINE
8
BLACK
6
CONTINUOUS
10
11.2239
20
7.59428
11
11.2149
21
7.6448
0
LINE
8
BLACK
6
CONTINUOUS
10
11.2149
20
7.6448
11
11.2406
21
7.68923
0
LINE
8
BLACK
6
CONTINUOUS
10
11.2406
20
7.68923
11
11.2888
21
7.70678
0
LINE
8
BLACK
6
CONTINUOUS
10
11.2888
20
7.70678
11
11.765
21
7.70678
0
LINE
8
BLACK
6
CONTINUOUS
10
11.765
20
7.70678
11
11.7689
21
7.70609
0
LINE
8
BLACK
6
CONTINUOUS
10
12.5014
20
7.70289
11
12.503
21
7.70293
0
LINE
8
BLACK
6
CONTINUOUS
10
12.503
20
7.70293
11
12.6459
21
7.65531
0
LINE
8
BLACK
6
CONTINUOUS
10
12.6459
20
7.65531
11
12.6688
21
7.64291
0
LINE
8
BLACK
6
CONTINUOUS
10
12.6688
20
7.64291
11
12.6711
21
7.63909
0
LINE
8
BLACK
6
CONTINUOUS
10
12.6711
20
7.63909
11
12.6752
21
7.63719
0
LINE
8
BLACK
6
CONTINUOUS
10
12.6752
20
7.63719
11
12.7704
21
7.54196
0
LINE
8
BLACK
6
CONTINUOUS
10
12.7704
20
7.54196
11
12.7833
21
7.52359
0
LINE
8
BLACK
6
CONTINUOUS
10
12.7833
20
7.52359
11
12.7845
21
7.52246
0
LINE
8
BLACK
6
CONTINUOUS
10
12.7845
20
7.52246
11
12.8321
21
7.42723
0
LINE
8
BLACK
6
CONTINUOUS
10
12.8321
20
7.42723
11
12.8358
21
7.41482
0
LINE
8
BLACK
6
CONTINUOUS
10
12.8358
20
7.41482
11
12.8378
21
7.41188
0
LINE
8
BLACK
6
CONTINUOUS
10
12.8378
20
7.41188
11
12.8854
21
7.2214
0
LINE
8
BLACK
6
CONTINUOUS
10
12.8854
20
7.2214
11
12.8864
21
7.20647
0
LINE
8
BLACK
6
CONTINUOUS
10
12.8864
20
7.20647
11
12.8876
21
7.20321
0
LINE
8
BLACK
6
CONTINUOUS
10
12.8876
20
7.20321
11
12.8876
21
7.06035
0
LINE
8
BLACK
6
CONTINUOUS
10
12.8876
20
7.06035
11
12.885
21
7.04561
0
LINE
8
BLACK
6
CONTINUOUS
10
12.885
20
7.04561
11
12.8854
21
7.04216
0
LINE
8
BLACK
6
CONTINUOUS
10
12.8854
20
7.04216
11
12.8378
21
6.85169
0
LINE
8
BLACK
6
CONTINUOUS
10
12.8378
20
6.85169
11
12.8325
21
6.83986
0
LINE
8
BLACK
6
CONTINUOUS
10
12.8325
20
6.83986
11
12.8321
21
6.83634
0
LINE
8
BLACK
6
CONTINUOUS
10
12.8321
20
6.83634
11
12.7845
21
6.7411
0
LINE
8
BLACK
6
CONTINUOUS
10
12.7845
20
6.7411
11
12.7711
21
6.72309
0
LINE
8
BLACK
6
CONTINUOUS
10
12.7711
20
6.72309
11
12.7704
21
6.72161
0
LINE
8
BLACK
6
CONTINUOUS
10
12.7704
20
6.72161
11
12.6752
21
6.62637
0
LINE
8
BLACK
6
CONTINUOUS
10
12.6752
20
6.62637
11
12.6538
21
6.61143
0
LINE
8
BLACK
6
CONTINUOUS
10
12.6538
20
6.61143
11
12.6494
21
6.61104
0
LINE
8
BLACK
6
CONTINUOUS
10
12.6494
20
6.61104
11
12.6459
21
6.60825
0
LINE
8
BLACK
6
CONTINUOUS
10
12.6459
20
6.60825
11
12.503
21
6.56063
0
LINE
8
BLACK
6
CONTINUOUS
10
12.503
20
6.56063
11
12.4808
21
6.55734
0
LINE
8
BLACK
6
CONTINUOUS
10
12.4808
20
6.55734
11
12.4793
21
6.55678
0
LINE
8
BLACK
6
CONTINUOUS
10
12.4793
20
6.55678
11
12.384
21
6.55678
0
LINE
8
BLACK
6
CONTINUOUS
10
12.384
20
6.55678
11
12.362
21
6.56067
0
LINE
8
BLACK
6
CONTINUOUS
10
12.362
20
6.56067
11
12.3603
21
6.56063
0
LINE
8
BLACK
6
CONTINUOUS
10
12.3603
20
6.56063
11
12.2175
21
6.60825
0
LINE
8
BLACK
6
CONTINUOUS
10
12.2175
20
6.60825
11
12.1946
21
6.62065
0
LINE
8
BLACK
6
CONTINUOUS
10
12.1946
20
6.62065
11
12.1922
21
6.62447
0
LINE
8
BLACK
6
CONTINUOUS
10
12.1922
20
6.62447
11
12.1882
21
6.62637
0
LINE
8
BLACK
6
CONTINUOUS
10
12.1882
20
6.62637
11
12.1405
21
6.67399
0
LINE
8
BLACK
6
CONTINUOUS
10
12.1405
20
6.67399
11
12.1256
21
6.69532
0
LINE
8
BLACK
6
CONTINUOUS
10
12.1256
20
6.69532
11
12.1211
21
6.74643
0
LINE
8
BLACK
6
CONTINUOUS
10
12.1211
20
6.74643
11
12.1505
21
6.78846
0
LINE
8
BLACK
6
CONTINUOUS
10
12.1505
20
6.78846
11
12.2001
21
6.80173
0
LINE
8
BLACK
6
CONTINUOUS
10
12.2001
20
6.80173
11
12.2466
21
6.78005
0
LINE
8
BLACK
6
CONTINUOUS
10
12.2466
20
6.78005
11
12.2817
21
6.74495
0
LINE
8
BLACK
6
CONTINUOUS
10
12.2817
20
6.74495
11
12.3962
21
6.70678
0
LINE
8
BLACK
6
CONTINUOUS
10
12.3962
20
6.70678
11
12.4671
21
6.70678
0
LINE
8
BLACK
6
CONTINUOUS
10
12.4671
20
6.70678
11
12.5816
21
6.74495
0
LINE
8
BLACK
6
CONTINUOUS
10
12.5816
20
6.74495
11
12.6557
21
6.81907
0
LINE
8
BLACK
6
CONTINUOUS
10
12.6557
20
6.81907
11
12.6942
21
6.89605
0
LINE
8
BLACK
6
CONTINUOUS
10
12.6942
20
6.89605
11
12.7376
21
7.06959
0
LINE
8
BLACK
6
CONTINUOUS
10
12.7376
20
7.06959
11
12.7376
21
7.19398
0
LINE
8
BLACK
6
CONTINUOUS
10
12.7376
20
7.19398
11
12.6942
21
7.36751
0
LINE
8
BLACK
6
CONTINUOUS
10
12.6942
20
7.36751
11
12.6557
21
7.4445
0
LINE
8
BLACK
6
CONTINUOUS
10
12.6557
20
7.4445
11
12.5816
21
7.51861
0
LINE
8
BLACK
6
CONTINUOUS
10
12.5816
20
7.51861
11
12.4671
21
7.55678
0
LINE
8
BLACK
6
CONTINUOUS
10
12.4671
20
7.55678
11
12.3962
21
7.55678
0
LINE
8
BLACK
6
CONTINUOUS
10
12.3962
20
7.55678
11
12.2817
21
7.51861
0
LINE
8
BLACK
6
CONTINUOUS
10
12.2817
20
7.51861
11
12.2466
21
7.48351
0
LINE
8
BLACK
6
CONTINUOUS
10
12.2466
20
7.48351
11
12.2253
21
7.46857
0
LINE
8
BLACK
6
CONTINUOUS
10
12.2253
20
7.46857
11
12.1742
21
7.4641
0
LINE
8
BLACK
6
CONTINUOUS
10
12.1742
20
7.4641
11
12.1321
21
7.49352
0
LINE
8
BLACK
6
CONTINUOUS
10
12.1321
20
7.49352
11
12.1189
21
7.54308
0
LINE
8
BLACK
6
CONTINUOUS
10
12.1189
20
7.54308
11
12.1405
21
7.58958
0
LINE
8
BLACK
6
CONTINUOUS
10
12.1405
20
7.58958
11
12.1882
21
7.63719
0
LINE
8
BLACK
6
CONTINUOUS
10
12.1882
20
7.63719
11
12.2095
21
7.65213
0
LINE
8
BLACK
6
CONTINUOUS
10
12.2095
20
7.65213
11
12.214
21
7.65253
0
LINE
8
BLACK
6
CONTINUOUS
10
12.214
20
7.65253
11
12.2175
21
7.65531
0
LINE
8
BLACK
6
CONTINUOUS
10
12.2175
20
7.65531
11
12.3603
21
7.70293
0
LINE
8
BLACK
6
CONTINUOUS
10
12.3603
20
7.70293
11
12.3825
21
7.70622
0
LINE
8
BLACK
6
CONTINUOUS
10
12.3825
20
7.70622
11
12.384
21
7.70678
0
LINE
8
BLACK
6
CONTINUOUS
10
12.384
20
7.70678
11
12.4793
21
7.70678
0
LINE
8
BLACK
6
CONTINUOUS
10
12.4793
20
7.70678
11
12.5014
21
7.70289
0
LINE
8
BLACK
6
CONTINUOUS
10
14.3266
20
6.8738
11
14.3442
21
6.83137
0
LINE
8
BLACK
6
CONTINUOUS
10
14.3442
20
6.83137
11
14.3266
21
6.78895
0
LINE
8
BLACK
6
CONTINUOUS
10
14.3266
20
6.78895
11
14.2842
21
6.77137
0
LINE
8
BLACK
6
CONTINUOUS
10
14.2842
20
6.77137
11
14.0685
21
6.77137
0
LINE
8
BLACK
6
CONTINUOUS
10
14.0685
20
6.77137
11
14.0261
21
6.78895
0
LINE
8
BLACK
6
CONTINUOUS
10
14.0261
20
6.78895
11
14.0085
21
6.83137
0
LINE
8
BLACK
6
CONTINUOUS
10
14.0085
20
6.83137
11
14.0261
21
6.8738
0
LINE
8
BLACK
6
CONTINUOUS
10
14.0261
20
6.8738
11
14.0685
21
6.89138
0
LINE
8
BLACK
6
CONTINUOUS
10
14.0685
20
6.89138
11
14.2842
21
6.89138
0
LINE
8
BLACK
6
CONTINUOUS
10
14.2842
20
6.89138
11
14.3266
21
6.8738
0
LINE
8
BLACK
6
CONTINUOUS
10
31.0434
20
7.95689
11
31.045
21
7.95693
0
LINE
8
BLACK
6
CONTINUOUS
10
31.045
20
7.95693
11
31.1879
21
7.90931
0
LINE
8
BLACK
6
CONTINUOUS
10
31.1879
20
7.90931
11
31.2108
21
7.89691
0
LINE
8
BLACK
6
CONTINUOUS
10
31.2108
20
7.89691
11
31.2131
21
7.89309
0
LINE
8
BLACK
6
CONTINUOUS
10
31.2131
20
7.89309
11
31.2172
21
7.89119
0
LINE
8
BLACK
6
CONTINUOUS
10
31.2172
20
7.89119
11
31.3124
21
7.79596
0
LINE
8
BLACK
6
CONTINUOUS
10
31.3124
20
7.79596
11
31.3253
21
7.77759
0
LINE
8
BLACK
6
CONTINUOUS
10
31.3253
20
7.77759
11
31.3265
21
7.77646
0
LINE
8
BLACK
6
CONTINUOUS
10
31.3265
20
7.77646
11
31.3741
21
7.68123
0
LINE
8
BLACK
6
CONTINUOUS
10
31.3741
20
7.68123
11
31.3778
21
7.66882
0
LINE
8
BLACK
6
CONTINUOUS
10
31.3778
20
7.66882
11
31.3798
21
7.66588
0
LINE
8
BLACK
6
CONTINUOUS
10
31.3798
20
7.66588
11
31.4274
21
7.4754
0
LINE
8
BLACK
6
CONTINUOUS
10
31.4274
20
7.4754
11
31.4284
21
7.46047
0
LINE
8
BLACK
6
CONTINUOUS
10
31.4284
20
7.46047
11
31.4296
21
7.45721
0
LINE
8
BLACK
6
CONTINUOUS
10
31.4296
20
7.45721
11
31.4296
21
7.31435
0
LINE
8
BLACK
6
CONTINUOUS
10
31.4296
20
7.31435
11
31.427
21
7.29961
0
LINE
8
BLACK
6
CONTINUOUS
10
31.427
20
7.29961
11
31.4274
21
7.29616
0
LINE
8
BLACK
6
CONTINUOUS
10
31.4274
20
7.29616
11
31.3798
21
7.10569
0
LINE
8
BLACK
6
CONTINUOUS
10
31.3798
20
7.10569
11
31.3745
21
7.09387
0
LINE
8
BLACK
6
CONTINUOUS
10
31.3745
20
7.09387
11
31.3741
21
7.09034
0
LINE
8
BLACK
6
CONTINUOUS
10
31.3741
20
7.09034
11
31.3265
21
6.9951
0
LINE
8
BLACK
6
CONTINUOUS
10
31.3265
20
6.9951
11
31.3131
21
6.97709
0
LINE
8
BLACK
6
CONTINUOUS
10
31.3131
20
6.97709
11
31.3124
21
6.97561
0
LINE
8
BLACK
6
CONTINUOUS
10
31.3124
20
6.97561
11
31.2172
21
6.88037
0
LINE
8
BLACK
6
CONTINUOUS
10
31.2172
20
6.88037
11
31.1958
21
6.86543
0
LINE
8
BLACK
6
CONTINUOUS
10
31.1958
20
6.86543
11
31.1914
21
6.86504
0
LINE
8
BLACK
6
CONTINUOUS
10
31.1914
20
6.86504
11
31.1879
21
6.86225
0
LINE
8
BLACK
6
CONTINUOUS
10
31.1879
20
6.86225
11
31.045
21
6.81463
0
LINE
8
BLACK
6
CONTINUOUS
10
31.045
20
6.81463
11
31.0228
21
6.81134
0
LINE
8
BLACK
6
CONTINUOUS
10
31.0228
20
6.81134
11
31.0213
21
6.81078
0
LINE
8
BLACK
6
CONTINUOUS
10
31.0213
20
6.81078
11
30.926
21
6.81078
0
LINE
8
BLACK
6
CONTINUOUS
10
30.926
20
6.81078
11
30.904
21
6.81467
0
LINE
8
BLACK
6
CONTINUOUS
10
30.904
20
6.81467
11
30.9023
21
6.81463
0
LINE
8
BLACK
6
CONTINUOUS
10
30.9023
20
6.81463
11
30.7595
21
6.86225
0
LINE
8
BLACK
6
CONTINUOUS
10
30.7595
20
6.86225
11
30.7366
21
6.87465
0
LINE
8
BLACK
6
CONTINUOUS
10
30.7366
20
6.87465
11
30.7342
21
6.87847
0
LINE
8
BLACK
6
CONTINUOUS
10
30.7342
20
6.87847
11
30.7302
21
6.88037
0
LINE
8
BLACK
6
CONTINUOUS
10
30.7302
20
6.88037
11
30.6825
21
6.92799
0
LINE
8
BLACK
6
CONTINUOUS
10
30.6825
20
6.92799
11
30.6676
21
6.94932
0
LINE
8
BLACK
6
CONTINUOUS
10
30.6676
20
6.94932
11
30.6631
21
7.00043
0
LINE
8
BLACK
6
CONTINUOUS
10
30.6631
20
7.00043
11
30.6925
21
7.04246
0
LINE
8
BLACK
6
CONTINUOUS
10
30.6925
20
7.04246
11
30.7421
21
7.05573
0
LINE
8
BLACK
6
CONTINUOUS
10
30.7421
20
7.05573
11
30.7886
21
7.03405
0
LINE
8
BLACK
6
CONTINUOUS
10
30.7886
20
7.03405
11
30.8237
21
6.99895
0
LINE
8
BLACK
6
CONTINUOUS
10
30.8237
20
6.99895
11
30.9382
21
6.96078
0
LINE
8
BLACK
6
CONTINUOUS
10
30.9382
20
6.96078
11
31.0091
21
6.96078
0
LINE
8
BLACK
6
CONTINUOUS
10
31.0091
20
6.96078
11
31.1236
21
6.99895
0
LINE
8
BLACK
6
CONTINUOUS
10
31.1236
20
6.99895
11
31.1977
21
7.07307
0
LINE
8
BLACK
6
CONTINUOUS
10
31.1977
20
7.07307
11
31.2362
21
7.15005
0
LINE
8
BLACK
6
CONTINUOUS
10
31.2362
20
7.15005
11
31.2796
21
7.32359
0
LINE
8
BLACK
6
CONTINUOUS
10
31.2796
20
7.32359
11
31.2796
21
7.44798
0
LINE
8
BLACK
6
CONTINUOUS
10
31.2796
20
7.44798
11
31.2362
21
7.62151
0
LINE
8
BLACK
6
CONTINUOUS
10
31.2362
20
7.62151
11
31.1977
21
7.6985
0
LINE
8
BLACK
6
CONTINUOUS
10
31.1977
20
7.6985
11
31.1236
21
7.77261
0
LINE
8
BLACK
6
CONTINUOUS
10
31.1236
20
7.77261
11
31.0091
21
7.81078
0
LINE
8
BLACK
6
CONTINUOUS
10
31.0091
20
7.81078
11
30.9382
21
7.81078
0
LINE
8
BLACK
6
CONTINUOUS
10
30.9382
20
7.81078
11
30.8237
21
7.77261
0
LINE
8
BLACK
6
CONTINUOUS
10
30.8237
20
7.77261
11
30.7886
21
7.73751
0
LINE
8
BLACK
6
CONTINUOUS
10
30.7886
20
7.73751
11
30.7673
21
7.72257
0
LINE
8
BLACK
6
CONTINUOUS
10
30.7673
20
7.72257
11
30.7162
21
7.7181
0
LINE
8
BLACK
6
CONTINUOUS
10
30.7162
20
7.7181
11
30.6741
21
7.74752
0
LINE
8
BLACK
6
CONTINUOUS
10
30.6741
20
7.74752
11
30.6609
21
7.79708
0
LINE
8
BLACK
6
CONTINUOUS
10
30.6609
20
7.79708
11
30.6825
21
7.84358
0
LINE
8
BLACK
6
CONTINUOUS
10
30.6825
20
7.84358
11
30.7302
21
7.89119
0
LINE
8
BLACK
6
CONTINUOUS
10
30.7302
20
7.89119
11
30.7515
21
7.90613
0
LINE
8
BLACK
6
CONTINUOUS
10
30.7515
20
7.90613
11
30.756
21
7.90653
0
LINE
8
BLACK
6
CONTINUOUS
10
30.756
20
7.90653
11
30.7595
21
7.90931
0
LINE
8
BLACK
6
CONTINUOUS
10
30.7595
20
7.90931
11
30.9023
21
7.95693
0
LINE
8
BLACK
6
CONTINUOUS
10
30.9023
20
7.95693
11
30.9245
21
7.96022
0
LINE
8
BLACK
6
CONTINUOUS
10
30.9245
20
7.96022
11
30.926
21
7.96078
0
LINE
8
BLACK
6
CONTINUOUS
10
30.926
20
7.96078
11
31.0213
21
7.96078
0
LINE
8
BLACK
6
CONTINUOUS
10
31.0213
20
7.96078
11
31.0434
21
7.95689
0
LINE
8
BLACK
6
CONTINUOUS
10
30.4279
20
7.95626
11
30.4672
21
7.92328
0
LINE
8
BLACK
6
CONTINUOUS
10
30.4672
20
7.92328
11
30.4761
21
7.87276
0
LINE
8
BLACK
6
CONTINUOUS
10
30.4761
20
7.87276
11
30.4504
21
7.82833
0
LINE
8
BLACK
6
CONTINUOUS
10
30.4504
20
7.82833
11
30.4022
21
7.81078
0
LINE
8
BLACK
6
CONTINUOUS
10
30.4022
20
7.81078
11
29.8493
21
7.81078
0
LINE
8
BLACK
6
CONTINUOUS
10
29.8493
20
7.81078
11
30.2331
21
6.91532
0
LINE
8
BLACK
6
CONTINUOUS
10
30.2331
20
6.91532
11
30.239
21
6.88997
0
LINE
8
BLACK
6
CONTINUOUS
10
30.239
20
6.88997
11
30.2242
21
6.84085
0
LINE
8
BLACK
6
CONTINUOUS
10
30.2242
20
6.84085
11
30.1813
21
6.81276
0
LINE
8
BLACK
6
CONTINUOUS
10
30.1813
20
6.81276
11
30.1303
21
6.81884
0
LINE
8
BLACK
6
CONTINUOUS
10
30.1303
20
6.81884
11
30.0952
21
6.85624
0
LINE
8
BLACK
6
CONTINUOUS
10
30.0952
20
6.85624
11
29.6666
21
7.85624
0
LINE
8
BLACK
6
CONTINUOUS
10
29.6666
20
7.85624
11
29.6607
21
7.8816
0
LINE
8
BLACK
6
CONTINUOUS
10
29.6607
20
7.8816
11
29.6632
21
7.89008
0
LINE
8
BLACK
6
CONTINUOUS
10
29.6632
20
7.89008
11
29.6617
21
7.8988
0
LINE
8
BLACK
6
CONTINUOUS
10
29.6617
20
7.8988
11
29.6705
21
7.91396
0
LINE
8
BLACK
6
CONTINUOUS
10
29.6705
20
7.91396
11
29.6755
21
7.93071
0
LINE
8
BLACK
6
CONTINUOUS
10
29.6755
20
7.93071
11
29.6829
21
7.93556
0
LINE
8
BLACK
6
CONTINUOUS
10
29.6829
20
7.93556
11
29.6874
21
7.94323
0
LINE
8
BLACK
6
CONTINUOUS
10
29.6874
20
7.94323
11
29.7038
21
7.94922
0
LINE
8
BLACK
6
CONTINUOUS
10
29.7038
20
7.94922
11
29.7184
21
7.9588
0
LINE
8
BLACK
6
CONTINUOUS
10
29.7184
20
7.9588
11
29.7272
21
7.95775
0
LINE
8
BLACK
6
CONTINUOUS
10
29.7272
20
7.95775
11
29.7356
21
7.96078
0
LINE
8
BLACK
6
CONTINUOUS
10
29.7356
20
7.96078
11
30.4022
21
7.96078
0
LINE
8
BLACK
6
CONTINUOUS
10
30.4022
20
7.96078
11
30.4279
21
7.95626
0
LINE
8
BLACK
6
CONTINUOUS
10
32.6623
20
7.11193
11
32.6798
21
7.0695
0
LINE
8
BLACK
6
CONTINUOUS
10
32.6798
20
7.0695
11
32.6623
21
7.02707
0
LINE
8
BLACK
6
CONTINUOUS
10
32.6623
20
7.02707
11
32.6198
21
7.0095
0
LINE
8
BLACK
6
CONTINUOUS
10
32.6198
20
7.0095
11
32.4042
21
7.0095
0
LINE
8
BLACK
6
CONTINUOUS
10
32.4042
20
7.0095
11
32.3617
21
7.02707
0
LINE
8
BLACK
6
CONTINUOUS
10
32.3617
20
7.02707
11
32.3442
21
7.0695
0
LINE
8
BLACK
6
CONTINUOUS
10
32.3442
20
7.0695
11
32.3617
21
7.11193
0
LINE
8
BLACK
6
CONTINUOUS
10
32.3617
20
7.11193
11
32.4042
21
7.1295
0
LINE
8
BLACK
6
CONTINUOUS
10
32.4042
20
7.1295
11
32.6198
21
7.1295
0
LINE
8
BLACK
6
CONTINUOUS
10
32.6198
20
7.1295
11
32.6623
21
7.11193
0
LINE
8
BLACK
6
CONTINUOUS
10
14.3266
20
7.5938
11
14.3442
21
7.55137
0
LINE
8
BLACK
6
CONTINUOUS
10
14.3442
20
7.55137
11
14.3266
21
7.50895
0
LINE
8
BLACK
6
CONTINUOUS
10
14.3266
20
7.50895
11
14.2842
21
7.49137
0
LINE
8
BLACK
6
CONTINUOUS
10
14.2842
20
7.49137
11
14.0685
21
7.49137
0
LINE
8
BLACK
6
CONTINUOUS
10
14.0685
20
7.49137
11
14.0261
21
7.50895
0
LINE
8
BLACK
6
CONTINUOUS
10
14.0261
20
7.50895
11
14.0085
21
7.55137
0
LINE
8
BLACK
6
CONTINUOUS
10
14.0085
20
7.55137
11
14.0261
21
7.5938
0
LINE
8
BLACK
6
CONTINUOUS
10
14.0261
20
7.5938
11
14.0685
21
7.61137
0
LINE
8
BLACK
6
CONTINUOUS
10
14.0685
20
7.61137
11
14.2842
21
7.61137
0
LINE
8
BLACK
6
CONTINUOUS
10
14.2842
20
7.61137
11
14.3266
21
7.5938
0
LINE
8
BLACK
6
CONTINUOUS
10
32.6623
20
7.83193
11
32.6798
21
7.7895
0
LINE
8
BLACK
6
CONTINUOUS
10
32.6798
20
7.7895
11
32.6623
21
7.74707
0
LINE
8
BLACK
6
CONTINUOUS
10
32.6623
20
7.74707
11
32.6198
21
7.7295
0
LINE
8
BLACK
6
CONTINUOUS
10
32.6198
20
7.7295
11
32.4042
21
7.7295
0
LINE
8
BLACK
6
CONTINUOUS
10
32.4042
20
7.7295
11
32.3617
21
7.74707
0
LINE
8
BLACK
6
CONTINUOUS
10
32.3617
20
7.74707
11
32.3442
21
7.7895
0
LINE
8
BLACK
6
CONTINUOUS
10
32.3442
20
7.7895
11
32.3617
21
7.83193
0
LINE
8
BLACK
6
CONTINUOUS
10
32.3617
20
7.83193
11
32.4042
21
7.8495
0
LINE
8
BLACK
6
CONTINUOUS
10
32.4042
20
7.8495
11
32.6198
21
7.8495
0
LINE
8
BLACK
6
CONTINUOUS
10
32.6198
20
7.8495
11
32.6623
21
7.83193
0
LINE
8
BLACK
6
CONTINUOUS
10
11.7689
20
8.97609
11
11.7706
21
8.97657
0
LINE
8
BLACK
6
CONTINUOUS
10
11.7706
20
8.97657
11
11.7734
21
8.97529
0
LINE
8
BLACK
6
CONTINUOUS
10
11.7734
20
8.97529
11
11.7906
21
8.97226
0
LINE
8
BLACK
6
CONTINUOUS
10
11.7906
20
8.97226
11
11.8028
21
8.96202
0
LINE
8
BLACK
6
CONTINUOUS
10
11.8028
20
8.96202
11
11.8174
21
8.95547
0
LINE
8
BLACK
6
CONTINUOUS
10
11.8174
20
8.95547
11
11.8219
21
8.94602
0
LINE
8
BLACK
6
CONTINUOUS
10
11.8219
20
8.94602
11
11.8299
21
8.93928
0
LINE
8
BLACK
6
CONTINUOUS
10
11.8299
20
8.93928
11
11.8327
21
8.9236
0
LINE
8
BLACK
6
CONTINUOUS
10
11.8327
20
8.9236
11
11.8396
21
8.90924
0
LINE
8
BLACK
6
CONTINUOUS
10
11.8396
20
8.90924
11
11.8872
21
8.43305
0
LINE
8
BLACK
6
CONTINUOUS
10
11.8872
20
8.43305
11
11.8853
21
8.40708
0
LINE
8
BLACK
6
CONTINUOUS
10
11.8853
20
8.40708
11
11.885
21
8.40667
0
LINE
8
BLACK
6
CONTINUOUS
10
11.885
20
8.40667
11
11.8851
21
8.40618
0
LINE
8
BLACK
6
CONTINUOUS
10
11.8851
20
8.40618
11
11.8706
21
8.38556
0
LINE
8
BLACK
6
CONTINUOUS
10
11.8706
20
8.38556
11
11.8564
21
8.36469
0
LINE
8
BLACK
6
CONTINUOUS
10
11.8564
20
8.36469
11
11.8559
21
8.36456
0
LINE
8
BLACK
6
CONTINUOUS
10
11.8559
20
8.36456
11
11.8556
21
8.36415
0
LINE
8
BLACK
6
CONTINUOUS
10
11.8556
20
8.36415
11
11.8313
21
8.35763
0
LINE
8
BLACK
6
CONTINUOUS
10
11.8313
20
8.35763
11
11.807
21
8.3508
0
LINE
8
BLACK
6
CONTINUOUS
10
11.807
20
8.3508
11
11.8066
21
8.351
0
LINE
8
BLACK
6
CONTINUOUS
10
11.8066
20
8.351
11
11.8061
21
8.35088
0
LINE
8
BLACK
6
CONTINUOUS
10
11.8061
20
8.35088
11
11.7833
21
8.36152
0
LINE
8
BLACK
6
CONTINUOUS
10
11.7833
20
8.36152
11
11.7602
21
8.3719
0
LINE
8
BLACK
6
CONTINUOUS
10
11.7602
20
8.3719
11
11.76
21
8.37235
0
LINE
8
BLACK
6
CONTINUOUS
10
11.76
20
8.37235
11
11.7596
21
8.37256
0
LINE
8
BLACK
6
CONTINUOUS
10
11.7596
20
8.37256
11
11.7206
21
8.41157
0
LINE
8
BLACK
6
CONTINUOUS
10
11.7206
20
8.41157
11
11.6521
21
8.44583
0
LINE
8
BLACK
6
CONTINUOUS
10
11.6521
20
8.44583
11
11.4494
21
8.44583
0
LINE
8
BLACK
6
CONTINUOUS
10
11.4494
20
8.44583
11
11.3808
21
8.41157
0
LINE
8
BLACK
6
CONTINUOUS
10
11.3808
20
8.41157
11
11.3504
21
8.38116
0
LINE
8
BLACK
6
CONTINUOUS
10
11.3504
20
8.38116
11
11.3162
21
8.31265
0
LINE
8
BLACK
6
CONTINUOUS
10
11.3162
20
8.31265
11
11.3162
21
8.10996
0
LINE
8
BLACK
6
CONTINUOUS
10
11.3162
20
8.10996
11
11.3504
21
8.04145
0
LINE
8
BLACK
6
CONTINUOUS
10
11.3504
20
8.04145
11
11.3808
21
8.01104
0
LINE
8
BLACK
6
CONTINUOUS
10
11.3808
20
8.01104
11
11.4494
21
7.97678
0
LINE
8
BLACK
6
CONTINUOUS
10
11.4494
20
7.97678
11
11.6521
21
7.97678
0
LINE
8
BLACK
6
CONTINUOUS
10
11.6521
20
7.97678
11
11.7206
21
8.01104
0
LINE
8
BLACK
6
CONTINUOUS
10
11.7206
20
8.01104
11
11.7596
21
8.05005
0
LINE
8
BLACK
6
CONTINUOUS
10
11.7596
20
8.05005
11
11.7809
21
8.06499
0
LINE
8
BLACK
6
CONTINUOUS
10
11.7809
20
8.06499
11
11.832
21
8.06946
0
LINE
8
BLACK
6
CONTINUOUS
10
11.832
20
8.06946
11
11.874
21
8.04004
0
LINE
8
BLACK
6
CONTINUOUS
10
11.874
20
8.04004
11
11.8873
21
7.99048
0
LINE
8
BLACK
6
CONTINUOUS
10
11.8873
20
7.99048
11
11.8656
21
7.94399
0
LINE
8
BLACK
6
CONTINUOUS
10
11.8656
20
7.94399
11
11.818
21
7.89637
0
LINE
8
BLACK
6
CONTINUOUS
10
11.818
20
7.89637
11
11.7997
21
7.88351
0
LINE
8
BLACK
6
CONTINUOUS
10
11.7997
20
7.88351
11
11.7985
21
7.88232
0
LINE
8
BLACK
6
CONTINUOUS
10
11.7985
20
7.88232
11
11.7033
21
7.8347
0
LINE
8
BLACK
6
CONTINUOUS
10
11.7033
20
7.8347
11
11.6783
21
7.82727
0
LINE
8
BLACK
6
CONTINUOUS
10
11.6783
20
7.82727
11
11.674
21
7.82831
0
LINE
8
BLACK
6
CONTINUOUS
10
11.674
20
7.82831
11
11.6698
21
7.82678
0
LINE
8
BLACK
6
CONTINUOUS
10
11.6698
20
7.82678
11
11.4317
21
7.82678
0
LINE
8
BLACK
6
CONTINUOUS
10
11.4317
20
7.82678
11
11.406
21
7.8313
0
LINE
8
BLACK
6
CONTINUOUS
10
11.406
20
7.8313
11
11.4026
21
7.83419
0
LINE
8
BLACK
6
CONTINUOUS
10
11.4026
20
7.83419
11
11.3981
21
7.8347
0
LINE
8
BLACK
6
CONTINUOUS
10
11.3981
20
7.8347
11
11.3029
21
7.88232
0
LINE
8
BLACK
6
CONTINUOUS
10
11.3029
20
7.88232
11
11.2849
21
7.89568
0
LINE
8
BLACK
6
CONTINUOUS
10
11.2849
20
7.89568
11
11.2834
21
7.89637
0
LINE
8
BLACK
6
CONTINUOUS
10
11.2834
20
7.89637
11
11.2358
21
7.94399
0
LINE
8
BLACK
6
CONTINUOUS
10
11.2358
20
7.94399
11
11.2229
21
7.96235
0
LINE
8
BLACK
6
CONTINUOUS
10
11.2229
20
7.96235
11
11.2217
21
7.96348
0
LINE
8
BLACK
6
CONTINUOUS
10
11.2217
20
7.96348
11
11.1741
21
8.05872
0
LINE
8
BLACK
6
CONTINUOUS
10
11.1741
20
8.05872
11
11.1667
21
8.08368
0
LINE
8
BLACK
6
CONTINUOUS
10
11.1667
20
8.08368
11
11.1677
21
8.08804
0
LINE
8
BLACK
6
CONTINUOUS
10
11.1677
20
8.08804
11
11.1662
21
8.09226
0
LINE
8
BLACK
6
CONTINUOUS
10
11.1662
20
8.09226
11
11.1662
21
8.33035
0
LINE
8
BLACK
6
CONTINUOUS
10
11.1662
20
8.33035
11
11.1707
21
8.356
0
LINE
8
BLACK
6
CONTINUOUS
10
11.1707
20
8.356
11
11.1736
21
8.35944
0
LINE
8
BLACK
6
CONTINUOUS
10
11.1736
20
8.35944
11
11.1741
21
8.36389
0
LINE
8
BLACK
6
CONTINUOUS
10
11.1741
20
8.36389
11
11.2217
21
8.45913
0
LINE
8
BLACK
6
CONTINUOUS
10
11.2217
20
8.45913
11
11.2351
21
8.47714
0
LINE
8
BLACK
6
CONTINUOUS
10
11.2351
20
8.47714
11
11.2358
21
8.47862
0
LINE
8
BLACK
6
CONTINUOUS
10
11.2358
20
8.47862
11
11.2834
21
8.52624
0
LINE
8
BLACK
6
CONTINUOUS
10
11.2834
20
8.52624
11
11.3018
21
8.5391
0
LINE
8
BLACK
6
CONTINUOUS
10
11.3018
20
8.5391
11
11.3029
21
8.54029
0
LINE
8
BLACK
6
CONTINUOUS
10
11.3029
20
8.54029
11
11.3981
21
8.58791
0
LINE
8
BLACK
6
CONTINUOUS
10
11.3981
20
8.58791
11
11.4231
21
8.59534
0
LINE
8
BLACK
6
CONTINUOUS
10
11.4231
20
8.59534
11
11.4274
21
8.5943
0
LINE
8
BLACK
6
CONTINUOUS
10
11.4274
20
8.5943
11
11.4317
21
8.59583
0
LINE
8
BLACK
6
CONTINUOUS
10
11.4317
20
8.59583
11
11.6698
21
8.59583
0
LINE
8
BLACK
6
CONTINUOUS
10
11.6698
20
8.59583
11
11.6954
21
8.59131
0
LINE
8
BLACK
6
CONTINUOUS
10
11.6954
20
8.59131
11
11.6988
21
8.58842
0
LINE
8
BLACK
6
CONTINUOUS
10
11.6988
20
8.58842
11
11.7033
21
8.58791
0
LINE
8
BLACK
6
CONTINUOUS
10
11.7033
20
8.58791
11
11.7219
21
8.57859
0
LINE
8
BLACK
6
CONTINUOUS
10
11.7219
20
8.57859
11
11.6971
21
8.82678
0
LINE
8
BLACK
6
CONTINUOUS
10
11.6971
20
8.82678
11
11.2888
21
8.82678
0
LINE
8
BLACK
6
CONTINUOUS
10
11.2888
20
8.82678
11
11.2632
21
8.8313
0
LINE
8
BLACK
6
CONTINUOUS
10
11.2632
20
8.8313
11
11.2239
21
8.86428
0
LINE
8
BLACK
6
CONTINUOUS
10
11.2239
20
8.86428
11
11.2149
21
8.9148
0
LINE
8
BLACK
6
CONTINUOUS
10
11.2149
20
8.9148
11
11.2406
21
8.95923
0
LINE
8
BLACK
6
CONTINUOUS
10
11.2406
20
8.95923
11
11.2888
21
8.97678
0
LINE
8
BLACK
6
CONTINUOUS
10
11.2888
20
8.97678
11
11.765
21
8.97678
0
LINE
8
BLACK
6
CONTINUOUS
10
11.765
20
8.97678
11
11.7689
21
8.97609
0
LINE
8
BLACK
6
CONTINUOUS
10
16.4015
20
8.97349
11
16.4058
21
8.97376
0
LINE
8
BLACK
6
CONTINUOUS
10
16.4058
20
8.97376
11
16.4233
21
8.96087
0
LINE
8
BLACK
6
CONTINUOUS
10
16.4233
20
8.96087
11
16.4422
21
8.94999
0
LINE
8
BLACK
6
CONTINUOUS
10
16.4422
20
8.94999
11
16.4436
21
8.94594
0
LINE
8
BLACK
6
CONTINUOUS
10
16.4436
20
8.94594
11
16.4471
21
8.94338
0
LINE
8
BLACK
6
CONTINUOUS
10
16.4471
20
8.94338
11
16.5382
21
8.80671
0
LINE
8
BLACK
6
CONTINUOUS
10
16.5382
20
8.80671
11
16.6196
21
8.72532
0
LINE
8
BLACK
6
CONTINUOUS
10
16.6196
20
8.72532
11
16.704
21
8.68315
0
LINE
8
BLACK
6
CONTINUOUS
10
16.704
20
8.68315
11
16.7249
21
8.66763
0
LINE
8
BLACK
6
CONTINUOUS
10
16.7249
20
8.66763
11
16.7453
21
8.62056
0
LINE
8
BLACK
6
CONTINUOUS
10
16.7453
20
8.62056
11
16.7307
21
8.57139
0
LINE
8
BLACK
6
CONTINUOUS
10
16.7307
20
8.57139
11
16.6878
21
8.54312
0
LINE
8
BLACK
6
CONTINUOUS
10
16.6878
20
8.54312
11
16.6369
21
8.54899
0
LINE
8
BLACK
6
CONTINUOUS
10
16.6369
20
8.54899
11
16.5416
21
8.5966
0
LINE
8
BLACK
6
CONTINUOUS
10
16.5416
20
8.5966
11
16.5236
21
8.60996
0
LINE
8
BLACK
6
CONTINUOUS
10
16.5236
20
8.60996
11
16.5222
21
8.61065
0
LINE
8
BLACK
6
CONTINUOUS
10
16.5222
20
8.61065
11
16.4597
21
8.6731
0
LINE
8
BLACK
6
CONTINUOUS
10
16.4597
20
8.6731
11
16.4597
21
7.97678
0
LINE
8
BLACK
6
CONTINUOUS
10
16.4597
20
7.97678
11
16.6704
21
7.97678
0
LINE
8
BLACK
6
CONTINUOUS
10
16.6704
20
7.97678
11
16.6961
21
7.97226
0
LINE
8
BLACK
6
CONTINUOUS
10
16.6961
20
7.97226
11
16.7354
21
7.93928
0
LINE
8
BLACK
6
CONTINUOUS
10
16.7354
20
7.93928
11
16.7443
21
7.88876
0
LINE
8
BLACK
6
CONTINUOUS
10
16.7443
20
7.88876
11
16.7186
21
7.84433
0
LINE
8
BLACK
6
CONTINUOUS
10
16.7186
20
7.84433
11
16.6704
21
7.82678
0
LINE
8
BLACK
6
CONTINUOUS
10
16.6704
20
7.82678
11
16.099
21
7.82678
0
LINE
8
BLACK
6
CONTINUOUS
10
16.099
20
7.82678
11
16.0733
21
7.8313
0
LINE
8
BLACK
6
CONTINUOUS
10
16.0733
20
7.8313
11
16.034
21
7.86428
0
LINE
8
BLACK
6
CONTINUOUS
10
16.034
20
7.86428
11
16.0251
21
7.9148
0
LINE
8
BLACK
6
CONTINUOUS
10
16.0251
20
7.9148
11
16.0508
21
7.95923
0
LINE
8
BLACK
6
CONTINUOUS
10
16.0508
20
7.95923
11
16.099
21
7.97678
0
LINE
8
BLACK
6
CONTINUOUS
10
16.099
20
7.97678
11
16.3097
21
7.97678
0
LINE
8
BLACK
6
CONTINUOUS
10
16.3097
20
7.97678
11
16.3097
21
8.90178
0
LINE
8
BLACK
6
CONTINUOUS
10
16.3097
20
8.90178
11
16.3142
21
8.92743
0
LINE
8
BLACK
6
CONTINUOUS
10
16.3142
20
8.92743
11
16.317
21
8.93074
0
LINE
8
BLACK
6
CONTINUOUS
10
16.317
20
8.93074
11
16.3175
21
8.93502
0
LINE
8
BLACK
6
CONTINUOUS
10
16.3175
20
8.93502
11
16.3332
21
8.95006
0
LINE
8
BLACK
6
CONTINUOUS
10
16.3332
20
8.95006
11
16.3472
21
8.96673
0
LINE
8
BLACK
6
CONTINUOUS
10
16.3472
20
8.96673
11
16.3515
21
8.96748
0
LINE
8
BLACK
6
CONTINUOUS
10
16.3515
20
8.96748
11
16.3546
21
8.97046
0
LINE
8
BLACK
6
CONTINUOUS
10
16.3546
20
8.97046
11
16.3763
21
8.97186
0
LINE
8
BLACK
6
CONTINUOUS
10
16.3763
20
8.97186
11
16.3977
21
8.97564
0
LINE
8
BLACK
6
CONTINUOUS
10
16.3977
20
8.97564
11
16.4015
21
8.97349
0
LINE
8
BLACK
6
CONTINUOUS
10
17.3538
20
8.97349
11
17.3582
21
8.97376
0
LINE
8
BLACK
6
CONTINUOUS
10
17.3582
20
8.97376
11
17.3757
21
8.96087
0
LINE
8
BLACK
6
CONTINUOUS
10
17.3757
20
8.96087
11
17.3945
21
8.94999
0
LINE
8
BLACK
6
CONTINUOUS
10
17.3945
20
8.94999
11
17.396
21
8.94594
0
LINE
8
BLACK
6
CONTINUOUS
10
17.396
20
8.94594
11
17.3995
21
8.94338
0
LINE
8
BLACK
6
CONTINUOUS
10
17.3995
20
8.94338
11
17.4906
21
8.80671
0
LINE
8
BLACK
6
CONTINUOUS
10
17.4906
20
8.80671
11
17.572
21
8.72532
0
LINE
8
BLACK
6
CONTINUOUS
10
17.572
20
8.72532
11
17.6563
21
8.68315
0
LINE
8
BLACK
6
CONTINUOUS
10
17.6563
20
8.68315
11
17.6773
21
8.66763
0
LINE
8
BLACK
6
CONTINUOUS
10
17.6773
20
8.66763
11
17.6977
21
8.62056
0
LINE
8
BLACK
6
CONTINUOUS
10
17.6977
20
8.62056
11
17.683
21
8.57139
0
LINE
8
BLACK
6
CONTINUOUS
10
17.683
20
8.57139
11
17.6402
21
8.54312
0
LINE
8
BLACK
6
CONTINUOUS
10
17.6402
20
8.54312
11
17.5893
21
8.54899
0
LINE
8
BLACK
6
CONTINUOUS
10
17.5893
20
8.54899
11
17.494
21
8.5966
0
LINE
8
BLACK
6
CONTINUOUS
10
17.494
20
8.5966
11
17.476
21
8.60996
0
LINE
8
BLACK
6
CONTINUOUS
10
17.476
20
8.60996
11
17.4745
21
8.61065
0
LINE
8
BLACK
6
CONTINUOUS
10
17.4745
20
8.61065
11
17.4121
21
8.6731
0
LINE
8
BLACK
6
CONTINUOUS
10
17.4121
20
8.6731
11
17.4121
21
7.97678
0
LINE
8
BLACK
6
CONTINUOUS
10
17.4121
20
7.97678
11
17.6228
21
7.97678
0
LINE
8
BLACK
6
CONTINUOUS
10
17.6228
20
7.97678
11
17.6485
21
7.97226
0
LINE
8
BLACK
6
CONTINUOUS
10
17.6485
20
7.97226
11
17.6878
21
7.93928
0
LINE
8
BLACK
6
CONTINUOUS
10
17.6878
20
7.93928
11
17.6967
21
7.88876
0
LINE
8
BLACK
6
CONTINUOUS
10
17.6967
20
7.88876
11
17.671
21
7.84433
0
LINE
8
BLACK
6
CONTINUOUS
10
17.671
20
7.84433
11
17.6228
21
7.82678
0
LINE
8
BLACK
6
CONTINUOUS
10
17.6228
20
7.82678
11
17.0514
21
7.82678
0
LINE
8
BLACK
6
CONTINUOUS
10
17.0514
20
7.82678
11
17.0257
21
7.8313
0
LINE
8
BLACK
6
CONTINUOUS
10
17.0257
20
7.8313
11
16.9864
21
7.86428
0
LINE
8
BLACK
6
CONTINUOUS
10
16.9864
20
7.86428
11
16.9775
21
7.9148
0
LINE
8
BLACK
6
CONTINUOUS
10
16.9775
20
7.9148
11
17.0032
21
7.95923
0
LINE
8
BLACK
6
CONTINUOUS
10
17.0032
20
7.95923
11
17.0514
21
7.97678
0
LINE
8
BLACK
6
CONTINUOUS
10
17.0514
20
7.97678
11
17.2621
21
7.97678
0
LINE
8
BLACK
6
CONTINUOUS
10
17.2621
20
7.97678
11
17.2621
21
8.90178
0
LINE
8
BLACK
6
CONTINUOUS
10
17.2621
20
8.90178
11
17.2666
21
8.92743
0
LINE
8
BLACK
6
CONTINUOUS
10
17.2666
20
8.92743
11
17.2694
21
8.93074
0
LINE
8
BLACK
6
CONTINUOUS
10
17.2694
20
8.93074
11
17.2699
21
8.93502
0
LINE
8
BLACK
6
CONTINUOUS
10
17.2699
20
8.93502
11
17.2856
21
8.95006
0
LINE
8
BLACK
6
CONTINUOUS
10
17.2856
20
8.95006
11
17.2996
21
8.96673
0
LINE
8
BLACK
6
CONTINUOUS
10
17.2996
20
8.96673
11
17.3038
21
8.96748
0
LINE
8
BLACK
6
CONTINUOUS
10
17.3038
20
8.96748
11
17.307
21
8.97046
0
LINE
8
BLACK
6
CONTINUOUS
10
17.307
20
8.97046
11
17.3287
21
8.97186
0
LINE
8
BLACK
6
CONTINUOUS
10
17.3287
20
8.97186
11
17.3501
21
8.97564
0
LINE
8
BLACK
6
CONTINUOUS
10
17.3501
20
8.97564
11
17.3538
21
8.97349
0
LINE
8
BLACK
6
CONTINUOUS
10
18.3116
20
8.97289
11
18.3132
21
8.97293
0
LINE
8
BLACK
6
CONTINUOUS
10
18.3132
20
8.97293
11
18.456
21
8.92531
0
LINE
8
BLACK
6
CONTINUOUS
10
18.456
20
8.92531
11
18.4789
21
8.91291
0
LINE
8
BLACK
6
CONTINUOUS
10
18.4789
20
8.91291
11
18.4813
21
8.90909
0
LINE
8
BLACK
6
CONTINUOUS
10
18.4813
20
8.90909
11
18.4854
21
8.90719
0
LINE
8
BLACK
6
CONTINUOUS
10
18.4854
20
8.90719
11
18.5806
21
8.81196
0
LINE
8
BLACK
6
CONTINUOUS
10
18.5806
20
8.81196
11
18.5935
21
8.79359
0
LINE
8
BLACK
6
CONTINUOUS
10
18.5935
20
8.79359
11
18.5946
21
8.79246
0
LINE
8
BLACK
6
CONTINUOUS
10
18.5946
20
8.79246
11
18.6423
21
8.69723
0
LINE
8
BLACK
6
CONTINUOUS
10
18.6423
20
8.69723
11
18.646
21
8.68482
0
LINE
8
BLACK
6
CONTINUOUS
10
18.646
20
8.68482
11
18.6479
21
8.68188
0
LINE
8
BLACK
6
CONTINUOUS
10
18.6479
20
8.68188
11
18.6956
21
8.4914
0
LINE
8
BLACK
6
CONTINUOUS
10
18.6956
20
8.4914
11
18.6966
21
8.47647
0
LINE
8
BLACK
6
CONTINUOUS
10
18.6966
20
8.47647
11
18.6978
21
8.47321
0
LINE
8
BLACK
6
CONTINUOUS
10
18.6978
20
8.47321
11
18.6978
21
8.33035
0
LINE
8
BLACK
6
CONTINUOUS
10
18.6978
20
8.33035
11
18.6952
21
8.31561
0
LINE
8
BLACK
6
CONTINUOUS
10
18.6952
20
8.31561
11
18.6956
21
8.31216
0
LINE
8
BLACK
6
CONTINUOUS
10
18.6956
20
8.31216
11
18.6479
21
8.12169
0
LINE
8
BLACK
6
CONTINUOUS
10
18.6479
20
8.12169
11
18.6427
21
8.10986
0
LINE
8
BLACK
6
CONTINUOUS
10
18.6427
20
8.10986
11
18.6423
21
8.10634
0
LINE
8
BLACK
6
CONTINUOUS
10
18.6423
20
8.10634
11
18.5946
21
8.0111
0
LINE
8
BLACK
6
CONTINUOUS
10
18.5946
20
8.0111
11
18.5813
21
7.99309
0
LINE
8
BLACK
6
CONTINUOUS
10
18.5813
20
7.99309
11
18.5806
21
7.99161
0
LINE
8
BLACK
6
CONTINUOUS
10
18.5806
20
7.99161
11
18.4854
21
7.89637
0
LINE
8
BLACK
6
CONTINUOUS
10
18.4854
20
7.89637
11
18.464
21
7.88143
0
LINE
8
BLACK
6
CONTINUOUS
10
18.464
20
7.88143
11
18.4596
21
7.88104
0
LINE
8
BLACK
6
CONTINUOUS
10
18.4596
20
7.88104
11
18.456
21
7.87825
0
LINE
8
BLACK
6
CONTINUOUS
10
18.456
20
7.87825
11
18.3132
21
7.83063
0
LINE
8
BLACK
6
CONTINUOUS
10
18.3132
20
7.83063
11
18.291
21
7.82734
0
LINE
8
BLACK
6
CONTINUOUS
10
18.291
20
7.82734
11
18.2895
21
7.82678
0
LINE
8
BLACK
6
CONTINUOUS
10
18.2895
20
7.82678
11
18.1942
21
7.82678
0
LINE
8
BLACK
6
CONTINUOUS
10
18.1942
20
7.82678
11
18.1721
21
7.83067
0
LINE
8
BLACK
6
CONTINUOUS
10
18.1721
20
7.83067
11
18.1705
21
7.83063
0
LINE
8
BLACK
6
CONTINUOUS
10
18.1705
20
7.83063
11
18.0277
21
7.87825
0
LINE
8
BLACK
6
CONTINUOUS
10
18.0277
20
7.87825
11
18.0048
21
7.89065
0
LINE
8
BLACK
6
CONTINUOUS
10
18.0048
20
7.89065
11
18.0024
21
7.89447
0
LINE
8
BLACK
6
CONTINUOUS
10
18.0024
20
7.89447
11
17.9983
21
7.89637
0
LINE
8
BLACK
6
CONTINUOUS
10
17.9983
20
7.89637
11
17.9507
21
7.94399
0
LINE
8
BLACK
6
CONTINUOUS
10
17.9507
20
7.94399
11
17.9358
21
7.96532
0
LINE
8
BLACK
6
CONTINUOUS
10
17.9358
20
7.96532
11
17.9313
21
8.01643
0
LINE
8
BLACK
6
CONTINUOUS
10
17.9313
20
8.01643
11
17.9607
21
8.05846
0
LINE
8
BLACK
6
CONTINUOUS
10
17.9607
20
8.05846
11
18.0103
21
8.07173
0
LINE
8
BLACK
6
CONTINUOUS
10
18.0103
20
8.07173
11
18.0568
21
8.05005
0
LINE
8
BLACK
6
CONTINUOUS
10
18.0568
20
8.05005
11
18.0919
21
8.01495
0
LINE
8
BLACK
6
CONTINUOUS
10
18.0919
20
8.01495
11
18.2064
21
7.97678
0
LINE
8
BLACK
6
CONTINUOUS
10
18.2064
20
7.97678
11
18.2773
21
7.97678
0
LINE
8
BLACK
6
CONTINUOUS
10
18.2773
20
7.97678
11
18.3918
21
8.01495
0
LINE
8
BLACK
6
CONTINUOUS
10
18.3918
20
8.01495
11
18.4659
21
8.08907
0
LINE
8
BLACK
6
CONTINUOUS
10
18.4659
20
8.08907
11
18.5044
21
8.16605
0
LINE
8
BLACK
6
CONTINUOUS
10
18.5044
20
8.16605
11
18.5478
21
8.33959
0
LINE
8
BLACK
6
CONTINUOUS
10
18.5478
20
8.33959
11
18.5478
21
8.46398
0
LINE
8
BLACK
6
CONTINUOUS
10
18.5478
20
8.46398
11
18.5044
21
8.63751
0
LINE
8
BLACK
6
CONTINUOUS
10
18.5044
20
8.63751
11
18.4659
21
8.7145
0
LINE
8
BLACK
6
CONTINUOUS
10
18.4659
20
8.7145
11
18.3918
21
8.78861
0
LINE
8
BLACK
6
CONTINUOUS
10
18.3918
20
8.78861
11
18.2773
21
8.82678
0
LINE
8
BLACK
6
CONTINUOUS
10
18.2773
20
8.82678
11
18.2064
21
8.82678
0
LINE
8
BLACK
6
CONTINUOUS
10
18.2064
20
8.82678
11
18.0919
21
8.78861
0
LINE
8
BLACK
6
CONTINUOUS
10
18.0919
20
8.78861
11
18.0568
21
8.75351
0
LINE
8
BLACK
6
CONTINUOUS
10
18.0568
20
8.75351
11
18.0355
21
8.73857
0
LINE
8
BLACK
6
CONTINUOUS
10
18.0355
20
8.73857
11
17.9843
21
8.7341
0
LINE
8
BLACK
6
CONTINUOUS
10
17.9843
20
8.7341
11
17.9423
21
8.76352
0
LINE
8
BLACK
6
CONTINUOUS
10
17.9423
20
8.76352
11
17.929
21
8.81308
0
LINE
8
BLACK
6
CONTINUOUS
10
17.929
20
8.81308
11
17.9507
21
8.85958
0
LINE
8
BLACK
6
CONTINUOUS
10
17.9507
20
8.85958
11
17.9983
21
8.90719
0
LINE
8
BLACK
6
CONTINUOUS
10
17.9983
20
8.90719
11
18.0197
21
8.92213
0
LINE
8
BLACK
6
CONTINUOUS
10
18.0197
20
8.92213
11
18.0241
21
8.92253
0
LINE
8
BLACK
6
CONTINUOUS
10
18.0241
20
8.92253
11
18.0277
21
8.92531
0
LINE
8
BLACK
6
CONTINUOUS
10
18.0277
20
8.92531
11
18.1705
21
8.97293
0
LINE
8
BLACK
6
CONTINUOUS
10
18.1705
20
8.97293
11
18.1927
21
8.97622
0
LINE
8
BLACK
6
CONTINUOUS
10
18.1927
20
8.97622
11
18.1942
21
8.97678
0
LINE
8
BLACK
6
CONTINUOUS
10
18.1942
20
8.97678
11
18.2895
21
8.97678
0
LINE
8
BLACK
6
CONTINUOUS
10
18.2895
20
8.97678
11
18.3116
21
8.97289
0
LINE
8
BLACK
6
CONTINUOUS
10
12.7747
20
8.97506
11
12.778
21
8.97564
0
LINE
8
BLACK
6
CONTINUOUS
10
12.778
20
8.97564
11
12.7809
21
8.97398
0
LINE
8
BLACK
6
CONTINUOUS
10
12.7809
20
8.97398
11
12.7906
21
8.97226
0
LINE
8
BLACK
6
CONTINUOUS
10
12.7906
20
8.97226
11
12.8056
21
8.95973
0
LINE
8
BLACK
6
CONTINUOUS
10
12.8056
20
8.95973
11
12.8224
21
8.94999
0
LINE
8
BLACK
6
CONTINUOUS
10
12.8224
20
8.94999
11
12.8248
21
8.94363
0
LINE
8
BLACK
6
CONTINUOUS
10
12.8248
20
8.94363
11
12.8299
21
8.93928
0
LINE
8
BLACK
6
CONTINUOUS
10
12.8299
20
8.93928
11
12.8333
21
8.92009
0
LINE
8
BLACK
6
CONTINUOUS
10
12.8333
20
8.92009
11
12.84
21
8.90178
0
LINE
8
BLACK
6
CONTINUOUS
10
12.84
20
8.90178
11
12.84
21
7.90178
0
LINE
8
BLACK
6
CONTINUOUS
10
12.84
20
7.90178
11
12.8355
21
7.87613
0
LINE
8
BLACK
6
CONTINUOUS
10
12.8355
20
7.87613
11
12.8025
21
7.83683
0
LINE
8
BLACK
6
CONTINUOUS
10
12.8025
20
7.83683
11
12.752
21
7.82792
0
LINE
8
BLACK
6
CONTINUOUS
10
12.752
20
7.82792
11
12.7075
21
7.85357
0
LINE
8
BLACK
6
CONTINUOUS
10
12.7075
20
7.85357
11
12.69
21
7.90178
0
LINE
8
BLACK
6
CONTINUOUS
10
12.69
20
7.90178
11
12.69
21
8.30297
0
LINE
8
BLACK
6
CONTINUOUS
10
12.69
20
8.30297
11
12.5659
21
8.30297
0
LINE
8
BLACK
6
CONTINUOUS
10
12.5659
20
8.30297
11
12.255
21
7.85877
0
LINE
8
BLACK
6
CONTINUOUS
10
12.255
20
7.85877
11
12.2366
21
7.84035
0
LINE
8
BLACK
6
CONTINUOUS
10
12.2366
20
7.84035
11
12.187
21
7.82706
0
LINE
8
BLACK
6
CONTINUOUS
10
12.187
20
7.82706
11
12.1405
21
7.84874
0
LINE
8
BLACK
6
CONTINUOUS
10
12.1405
20
7.84874
11
12.1189
21
7.89523
0
LINE
8
BLACK
6
CONTINUOUS
10
12.1189
20
7.89523
11
12.1321
21
7.94479
0
LINE
8
BLACK
6
CONTINUOUS
10
12.1321
20
7.94479
11
12.383
21
8.30316
0
LINE
8
BLACK
6
CONTINUOUS
10
12.383
20
8.30316
11
12.3584
21
8.30749
0
LINE
8
BLACK
6
CONTINUOUS
10
12.3584
20
8.30749
11
12.355
21
8.31038
0
LINE
8
BLACK
6
CONTINUOUS
10
12.355
20
8.31038
11
12.3505
21
8.31089
0
LINE
8
BLACK
6
CONTINUOUS
10
12.3505
20
8.31089
11
12.2553
21
8.35851
0
LINE
8
BLACK
6
CONTINUOUS
10
12.2553
20
8.35851
11
12.2373
21
8.37187
0
LINE
8
BLACK
6
CONTINUOUS
10
12.2373
20
8.37187
11
12.2358
21
8.37256
0
LINE
8
BLACK
6
CONTINUOUS
10
12.2358
20
8.37256
11
12.1882
21
8.42018
0
LINE
8
BLACK
6
CONTINUOUS
10
12.1882
20
8.42018
11
12.1753
21
8.43854
0
LINE
8
BLACK
6
CONTINUOUS
10
12.1753
20
8.43854
11
12.1741
21
8.43967
0
LINE
8
BLACK
6
CONTINUOUS
10
12.1741
20
8.43967
11
12.1265
21
8.53491
0
LINE
8
BLACK
6
CONTINUOUS
10
12.1265
20
8.53491
11
12.1191
21
8.55987
0
LINE
8
BLACK
6
CONTINUOUS
10
12.1191
20
8.55987
11
12.1201
21
8.56424
0
LINE
8
BLACK
6
CONTINUOUS
10
12.1201
20
8.56424
11
12.1186
21
8.56845
0
LINE
8
BLACK
6
CONTINUOUS
10
12.1186
20
8.56845
11
12.1186
21
8.7113
0
LINE
8
BLACK
6
CONTINUOUS
10
12.1186
20
8.7113
11
12.1231
21
8.73696
0
LINE
8
BLACK
6
CONTINUOUS
10
12.1231
20
8.73696
11
12.126
21
8.74039
0
LINE
8
BLACK
6
CONTINUOUS
10
12.126
20
8.74039
11
12.1265
21
8.74485
0
LINE
8
BLACK
6
CONTINUOUS
10
12.1265
20
8.74485
11
12.1741
21
8.84008
0
LINE
8
BLACK
6
CONTINUOUS
10
12.1741
20
8.84008
11
12.1875
21
8.85809
0
LINE
8
BLACK
6
CONTINUOUS
10
12.1875
20
8.85809
11
12.1882
21
8.85958
0
LINE
8
BLACK
6
CONTINUOUS
10
12.1882
20
8.85958
11
12.2358
21
8.90719
0
LINE
8
BLACK
6
CONTINUOUS
10
12.2358
20
8.90719
11
12.2541
21
8.92005
0
LINE
8
BLACK
6
CONTINUOUS
10
12.2541
20
8.92005
11
12.2553
21
8.92124
0
LINE
8
BLACK
6
CONTINUOUS
10
12.2553
20
8.92124
11
12.3505
21
8.96886
0
LINE
8
BLACK
6
CONTINUOUS
10
12.3505
20
8.96886
11
12.3755
21
8.97629
0
LINE
8
BLACK
6
CONTINUOUS
10
12.3755
20
8.97629
11
12.3798
21
8.97525
0
LINE
8
BLACK
6
CONTINUOUS
10
12.3798
20
8.97525
11
12.384
21
8.97678
0
LINE
8
BLACK
6
CONTINUOUS
10
12.384
20
8.97678
11
12.765
21
8.97678
0
LINE
8
BLACK
6
CONTINUOUS
10
12.765
20
8.97678
11
12.7747
21
8.97506
0
LINE
8
BLACK
6
CONTINUOUS
10
12.3332
20
8.79252
11
12.3028
21
8.76212
0
LINE
8
BLACK
6
CONTINUOUS
10
12.3028
20
8.76212
11
12.2686
21
8.6936
0
LINE
8
BLACK
6
CONTINUOUS
10
12.2686
20
8.6936
11
12.2686
21
8.58615
0
LINE
8
BLACK
6
CONTINUOUS
10
12.2686
20
8.58615
11
12.3028
21
8.51764
0
LINE
8
BLACK
6
CONTINUOUS
10
12.3028
20
8.51764
11
12.3332
21
8.48723
0
LINE
8
BLACK
6
CONTINUOUS
10
12.3332
20
8.48723
11
12.4017
21
8.45297
0
LINE
8
BLACK
6
CONTINUOUS
10
12.4017
20
8.45297
11
12.69
21
8.45297
0
LINE
8
BLACK
6
CONTINUOUS
10
12.69
20
8.45297
11
12.69
21
8.82678
0
LINE
8
BLACK
6
CONTINUOUS
10
12.69
20
8.82678
11
12.4017
21
8.82678
0
LINE
8
BLACK
6
CONTINUOUS
10
12.4017
20
8.82678
11
12.3332
21
8.79252
0
LINE
8
BLACK
6
CONTINUOUS
10
19.9623
20
8.06443
11
19.9798
21
8.022
0
LINE
8
BLACK
6
CONTINUOUS
10
19.9798
20
8.022
11
19.9623
21
7.97957
0
LINE
8
BLACK
6
CONTINUOUS
10
19.9623
20
7.97957
11
19.9198
21
7.962
0
LINE
8
BLACK
6
CONTINUOUS
10
19.9198
20
7.962
11
19.7042
21
7.962
0
LINE
8
BLACK
6
CONTINUOUS
10
19.7042
20
7.962
11
19.6617
21
7.97957
0
LINE
8
BLACK
6
CONTINUOUS
10
19.6617
20
7.97957
11
19.6442
21
8.022
0
LINE
8
BLACK
6
CONTINUOUS
10
19.6442
20
8.022
11
19.6617
21
8.06443
0
LINE
8
BLACK
6
CONTINUOUS
10
19.6617
20
8.06443
11
19.7042
21
8.082
0
LINE
8
BLACK
6
CONTINUOUS
10
19.7042
20
8.082
11
19.9198
21
8.082
0
LINE
8
BLACK
6
CONTINUOUS
10
19.9198
20
8.082
11
19.9623
21
8.06443
0
LINE
8
BLACK
6
CONTINUOUS
10
14.3724
20
8.1238
11
14.39
21
8.08137
0
LINE
8
BLACK
6
CONTINUOUS
10
14.39
20
8.08137
11
14.3724
21
8.03895
0
LINE
8
BLACK
6
CONTINUOUS
10
14.3724
20
8.03895
11
14.33
21
8.02137
0
LINE
8
BLACK
6
CONTINUOUS
10
14.33
20
8.02137
11
14.0227
21
8.02137
0
LINE
8
BLACK
6
CONTINUOUS
10
14.0227
20
8.02137
11
13.9803
21
8.03895
0
LINE
8
BLACK
6
CONTINUOUS
10
13.9803
20
8.03895
11
13.9627
21
8.08137
0
LINE
8
BLACK
6
CONTINUOUS
10
13.9627
20
8.08137
11
13.9803
21
8.1238
0
LINE
8
BLACK
6
CONTINUOUS
10
13.9803
20
8.1238
11
14.0227
21
8.14138
0
LINE
8
BLACK
6
CONTINUOUS
10
14.0227
20
8.14138
11
14.33
21
8.14138
0
LINE
8
BLACK
6
CONTINUOUS
10
14.33
20
8.14138
11
14.3724
21
8.1238
0
LINE
8
BLACK
6
CONTINUOUS
10
19.9623
20
8.78443
11
19.9798
21
8.742
0
LINE
8
BLACK
6
CONTINUOUS
10
19.9798
20
8.742
11
19.9623
21
8.69957
0
LINE
8
BLACK
6
CONTINUOUS
10
19.9623
20
8.69957
11
19.9198
21
8.682
0
LINE
8
BLACK
6
CONTINUOUS
10
19.9198
20
8.682
11
19.7042
21
8.682
0
LINE
8
BLACK
6
CONTINUOUS
10
19.7042
20
8.682
11
19.6617
21
8.69957
0
LINE
8
BLACK
6
CONTINUOUS
10
19.6617
20
8.69957
11
19.6442
21
8.742
0
LINE
8
BLACK
6
CONTINUOUS
10
19.6442
20
8.742
11
19.6617
21
8.78443
0
LINE
8
BLACK
6
CONTINUOUS
10
19.6617
20
8.78443
11
19.7042
21
8.802
0
LINE
8
BLACK
6
CONTINUOUS
10
19.7042
20
8.802
11
19.9198
21
8.802
0
LINE
8
BLACK
6
CONTINUOUS
10
19.9198
20
8.802
11
19.9623
21
8.78443
0
LINE
8
BLACK
6
CONTINUOUS
10
14.3724
20
8.8838
11
14.39
21
8.84137
0
LINE
8
BLACK
6
CONTINUOUS
10
14.39
20
8.84137
11
14.3724
21
8.79895
0
LINE
8
BLACK
6
CONTINUOUS
10
14.3724
20
8.79895
11
14.33
21
8.78137
0
LINE
8
BLACK
6
CONTINUOUS
10
14.33
20
8.78137
11
14.0227
21
8.78137
0
LINE
8
BLACK
6
CONTINUOUS
10
14.0227
20
8.78137
11
13.9803
21
8.79895
0
LINE
8
BLACK
6
CONTINUOUS
10
13.9803
20
8.79895
11
13.9627
21
8.84137
0
LINE
8
BLACK
6
CONTINUOUS
10
13.9627
20
8.84137
11
13.9803
21
8.8838
0
LINE
8
BLACK
6
CONTINUOUS
10
13.9803
20
8.8838
11
14.0227
21
8.90137
0
LINE
8
BLACK
6
CONTINUOUS
10
14.0227
20
8.90137
11
14.33
21
8.90137
0
LINE
8
BLACK
6
CONTINUOUS
10
14.33
20
8.90137
11
14.3724
21
8.8838
0
LINE
8
BLACK
6
CONTINUOUS
10
11.6954
20
10.2423
11
11.6988
21
10.2394
0
LINE
8
BLACK
6
CONTINUOUS
10
11.6988
20
10.2394
11
11.7033
21
10.2389
0
LINE
8
BLACK
6
CONTINUOUS
10
11.7033
20
10.2389
11
11.7985
21
10.1912
0
LINE
8
BLACK
6
CONTINUOUS
10
11.7985
20
10.1912
11
11.8165
21
10.1779
0
LINE
8
BLACK
6
CONTINUOUS
10
11.8165
20
10.1779
11
11.818
21
10.1772
0
LINE
8
BLACK
6
CONTINUOUS
10
11.818
20
10.1772
11
11.8656
21
10.1296
0
LINE
8
BLACK
6
CONTINUOUS
10
11.8656
20
10.1296
11
11.8806
21
10.1082
0
LINE
8
BLACK
6
CONTINUOUS
10
11.8806
20
10.1082
11
11.8851
21
10.0571
0
LINE
8
BLACK
6
CONTINUOUS
10
11.8851
20
10.0571
11
11.8556
21
10.0151
0
LINE
8
BLACK
6
CONTINUOUS
10
11.8556
20
10.0151
11
11.8061
21
10.0018
0
LINE
8
BLACK
6
CONTINUOUS
10
11.8061
20
10.0018
11
11.7596
21
10.0235
0
LINE
8
BLACK
6
CONTINUOUS
10
11.7596
20
10.0235
11
11.7206
21
10.0625
0
LINE
8
BLACK
6
CONTINUOUS
10
11.7206
20
10.0625
11
11.6521
21
10.0968
0
LINE
8
BLACK
6
CONTINUOUS
10
11.6521
20
10.0968
11
11.4494
21
10.0968
0
LINE
8
BLACK
6
CONTINUOUS
10
11.4494
20
10.0968
11
11.3808
21
10.0625
0
LINE
8
BLACK
6
CONTINUOUS
10
11.3808
20
10.0625
11
11.3504
21
10.0321
0
LINE
8
BLACK
6
CONTINUOUS
10
11.3504
20
10.0321
11
11.3162
21
9.9636
0
LINE
8
BLACK
6
CONTINUOUS
10
11.3162
20
9.9636
11
11.3162
21
9.89824
0
LINE
8
BLACK
6
CONTINUOUS
10
11.3162
20
9.89824
11
11.3544
21
9.78372
0
LINE
8
BLACK
6
CONTINUOUS
10
11.3544
20
9.78372
11
11.9133
21
9.22481
0
LINE
8
BLACK
6
CONTINUOUS
10
11.9133
20
9.22481
11
11.9227
21
9.2114
0
LINE
8
BLACK
6
CONTINUOUS
10
11.9227
20
9.2114
11
11.9252
21
9.20928
0
LINE
8
BLACK
6
CONTINUOUS
10
11.9252
20
9.20928
11
11.9255
21
9.20729
0
LINE
8
BLACK
6
CONTINUOUS
10
11.9255
20
9.20729
11
11.9282
21
9.20348
0
LINE
8
BLACK
6
CONTINUOUS
10
11.9282
20
9.20348
11
11.9302
21
9.18098
0
LINE
8
BLACK
6
CONTINUOUS
10
11.9302
20
9.18098
11
11.9341
21
9.15876
0
LINE
8
BLACK
6
CONTINUOUS
10
11.9341
20
9.15876
11
11.9324
21
9.15579
0
LINE
8
BLACK
6
CONTINUOUS
10
11.9324
20
9.15579
11
11.9327
21
9.15237
0
LINE
8
BLACK
6
CONTINUOUS
10
11.9327
20
9.15237
11
11.9197
21
9.13387
0
LINE
8
BLACK
6
CONTINUOUS
10
11.9197
20
9.13387
11
11.9084
21
9.11433
0
LINE
8
BLACK
6
CONTINUOUS
10
11.9084
20
9.11433
11
11.9052
21
9.11316
0
LINE
8
BLACK
6
CONTINUOUS
10
11.9052
20
9.11316
11
11.9032
21
9.11034
0
LINE
8
BLACK
6
CONTINUOUS
10
11.9032
20
9.11034
11
11.8814
21
9.1045
0
LINE
8
BLACK
6
CONTINUOUS
10
11.8814
20
9.1045
11
11.8602
21
9.09678
0
LINE
8
BLACK
6
CONTINUOUS
10
11.8602
20
9.09678
11
11.2412
21
9.09678
0
LINE
8
BLACK
6
CONTINUOUS
10
11.2412
20
9.09678
11
11.2155
21
9.1013
0
LINE
8
BLACK
6
CONTINUOUS
10
11.2155
20
9.1013
11
11.1762
21
9.13428
0
LINE
8
BLACK
6
CONTINUOUS
10
11.1762
20
9.13428
11
11.1673
21
9.1848
0
LINE
8
BLACK
6
CONTINUOUS
10
11.1673
20
9.1848
11
11.193
21
9.22923
0
LINE
8
BLACK
6
CONTINUOUS
10
11.193
20
9.22923
11
11.2412
21
9.24678
0
LINE
8
BLACK
6
CONTINUOUS
10
11.2412
20
9.24678
11
11.6792
21
9.24678
0
LINE
8
BLACK
6
CONTINUOUS
10
11.6792
20
9.24678
11
11.2358
21
9.69018
0
LINE
8
BLACK
6
CONTINUOUS
10
11.2358
20
9.69018
11
11.2208
21
9.71151
0
LINE
8
BLACK
6
CONTINUOUS
10
11.2208
20
9.71151
11
11.2204
21
9.71598
0
LINE
8
BLACK
6
CONTINUOUS
10
11.2204
20
9.71598
11
11.2177
21
9.71949
0
LINE
8
BLACK
6
CONTINUOUS
10
11.2177
20
9.71949
11
11.17
21
9.86235
0
LINE
8
BLACK
6
CONTINUOUS
10
11.17
20
9.86235
11
11.1667
21
9.88453
0
LINE
8
BLACK
6
CONTINUOUS
10
11.1667
20
9.88453
11
11.1662
21
9.88607
0
LINE
8
BLACK
6
CONTINUOUS
10
11.1662
20
9.88607
11
11.1662
21
9.9813
0
LINE
8
BLACK
6
CONTINUOUS
10
11.1662
20
9.9813
11
11.1707
21
10.007
0
LINE
8
BLACK
6
CONTINUOUS
10
11.1707
20
10.007
11
11.1736
21
10.0104
0
LINE
8
BLACK
6
CONTINUOUS
10
11.1736
20
10.0104
11
11.1741
21
10.0148
0
LINE
8
BLACK
6
CONTINUOUS
10
11.1741
20
10.0148
11
11.2217
21
10.1101
0
LINE
8
BLACK
6
CONTINUOUS
10
11.2217
20
10.1101
11
11.2351
21
10.1281
0
LINE
8
BLACK
6
CONTINUOUS
10
11.2351
20
10.1281
11
11.2358
21
10.1296
0
LINE
8
BLACK
6
CONTINUOUS
10
11.2358
20
10.1296
11
11.2834
21
10.1772
0
LINE
8
BLACK
6
CONTINUOUS
10
11.2834
20
10.1772
11
11.3018
21
10.1901
0
LINE
8
BLACK
6
CONTINUOUS
10
11.3018
20
10.1901
11
11.3029
21
10.1912
0
LINE
8
BLACK
6
CONTINUOUS
10
11.3029
20
10.1912
11
11.3981
21
10.2389
0
LINE
8
BLACK
6
CONTINUOUS
10
11.3981
20
10.2389
11
11.4231
21
10.2463
0
LINE
8
BLACK
6
CONTINUOUS
10
11.4231
20
10.2463
11
11.4274
21
10.2452
0
LINE
8
BLACK
6
CONTINUOUS
10
11.4274
20
10.2452
11
11.4317
21
10.2468
0
LINE
8
BLACK
6
CONTINUOUS
10
11.4317
20
10.2468
11
11.6698
21
10.2468
0
LINE
8
BLACK
6
CONTINUOUS
10
11.6698
20
10.2468
11
11.6954
21
10.2423
0
LINE
8
BLACK
6
CONTINUOUS
10
17.3946
20
10.2423
11
17.398
21
10.2394
0
LINE
8
BLACK
6
CONTINUOUS
10
17.398
20
10.2394
11
17.4024
21
10.2389
0
LINE
8
BLACK
6
CONTINUOUS
10
17.4024
20
10.2389
11
17.4977
21
10.1912
0
LINE
8
BLACK
6
CONTINUOUS
10
17.4977
20
10.1912
11
17.5157
21
10.1779
0
LINE
8
BLACK
6
CONTINUOUS
10
17.5157
20
10.1779
11
17.5172
21
10.1772
0
LINE
8
BLACK
6
CONTINUOUS
10
17.5172
20
10.1772
11
17.5648
21
10.1296
0
LINE
8
BLACK
6
CONTINUOUS
10
17.5648
20
10.1296
11
17.5713
21
10.1202
0
LINE
8
BLACK
6
CONTINUOUS
10
17.5713
20
10.1202
11
17.5742
21
10.1181
0
LINE
8
BLACK
6
CONTINUOUS
10
17.5742
20
10.1181
11
17.6694
21
9.97529
0
LINE
8
BLACK
6
CONTINUOUS
10
17.6694
20
9.97529
11
17.6795
21
9.95223
0
LINE
8
BLACK
6
CONTINUOUS
10
17.6795
20
9.95223
11
17.6798
21
9.95188
0
LINE
8
BLACK
6
CONTINUOUS
10
17.6798
20
9.95188
11
17.7274
21
9.7614
0
LINE
8
BLACK
6
CONTINUOUS
10
17.7274
20
9.7614
11
17.7284
21
9.74647
0
LINE
8
BLACK
6
CONTINUOUS
10
17.7284
20
9.74647
11
17.7296
21
9.74321
0
LINE
8
BLACK
6
CONTINUOUS
10
17.7296
20
9.74321
11
17.7296
21
9.36226
0
LINE
8
BLACK
6
CONTINUOUS
10
17.7296
20
9.36226
11
17.7251
21
9.33661
0
LINE
8
BLACK
6
CONTINUOUS
10
17.7251
20
9.33661
11
17.7222
21
9.33317
0
LINE
8
BLACK
6
CONTINUOUS
10
17.7222
20
9.33317
11
17.7217
21
9.32872
0
LINE
8
BLACK
6
CONTINUOUS
10
17.7217
20
9.32872
11
17.6741
21
9.23348
0
LINE
8
BLACK
6
CONTINUOUS
10
17.6741
20
9.23348
11
17.6607
21
9.21547
0
LINE
8
BLACK
6
CONTINUOUS
10
17.6607
20
9.21547
11
17.66
21
9.21399
0
LINE
8
BLACK
6
CONTINUOUS
10
17.66
20
9.21399
11
17.6124
21
9.16637
0
LINE
8
BLACK
6
CONTINUOUS
10
17.6124
20
9.16637
11
17.594
21
9.15351
0
LINE
8
BLACK
6
CONTINUOUS
10
17.594
20
9.15351
11
17.5929
21
9.15232
0
LINE
8
BLACK
6
CONTINUOUS
10
17.5929
20
9.15232
11
17.4977
21
9.1047
0
LINE
8
BLACK
6
CONTINUOUS
10
17.4977
20
9.1047
11
17.4727
21
9.09727
0
LINE
8
BLACK
6
CONTINUOUS
10
17.4727
20
9.09727
11
17.4684
21
9.09831
0
LINE
8
BLACK
6
CONTINUOUS
10
17.4684
20
9.09831
11
17.4641
21
9.09678
0
LINE
8
BLACK
6
CONTINUOUS
10
17.4641
20
9.09678
11
17.2737
21
9.09678
0
LINE
8
BLACK
6
CONTINUOUS
10
17.2737
20
9.09678
11
17.248
21
9.1013
0
LINE
8
BLACK
6
CONTINUOUS
10
17.248
20
9.1013
11
17.2446
21
9.10419
0
LINE
8
BLACK
6
CONTINUOUS
10
17.2446
20
9.10419
11
17.2401
21
9.1047
0
LINE
8
BLACK
6
CONTINUOUS
10
17.2401
20
9.1047
11
17.1449
21
9.15232
0
LINE
8
BLACK
6
CONTINUOUS
10
17.1449
20
9.15232
11
17.1269
21
9.16568
0
LINE
8
BLACK
6
CONTINUOUS
10
17.1269
20
9.16568
11
17.1254
21
9.16637
0
LINE
8
BLACK
6
CONTINUOUS
10
17.1254
20
9.16637
11
17.0778
21
9.21399
0
LINE
8
BLACK
6
CONTINUOUS
10
17.0778
20
9.21399
11
17.0649
21
9.23235
0
LINE
8
BLACK
6
CONTINUOUS
10
17.0649
20
9.23235
11
17.0637
21
9.23348
0
LINE
8
BLACK
6
CONTINUOUS
10
17.0637
20
9.23348
11
17.0161
21
9.32872
0
LINE
8
BLACK
6
CONTINUOUS
10
17.0161
20
9.32872
11
17.0087
21
9.35368
0
LINE
8
BLACK
6
CONTINUOUS
10
17.0087
20
9.35368
11
17.0097
21
9.35804
0
LINE
8
BLACK
6
CONTINUOUS
10
17.0097
20
9.35804
11
17.0082
21
9.36226
0
LINE
8
BLACK
6
CONTINUOUS
10
17.0082
20
9.36226
11
17.0082
21
9.60035
0
LINE
8
BLACK
6
CONTINUOUS
10
17.0082
20
9.60035
11
17.0127
21
9.626
0
LINE
8
BLACK
6
CONTINUOUS
10
17.0127
20
9.626
11
17.0156
21
9.62944
0
LINE
8
BLACK
6
CONTINUOUS
10
17.0156
20
9.62944
11
17.0161
21
9.63389
0
LINE
8
BLACK
6
CONTINUOUS
10
17.0161
20
9.63389
11
17.0637
21
9.72913
0
LINE
8
BLACK
6
CONTINUOUS
10
17.0637
20
9.72913
11
17.0771
21
9.74714
0
LINE
8
BLACK
6
CONTINUOUS
10
17.0771
20
9.74714
11
17.0778
21
9.74862
0
LINE
8
BLACK
6
CONTINUOUS
10
17.0778
20
9.74862
11
17.1254
21
9.79624
0
LINE
8
BLACK
6
CONTINUOUS
10
17.1254
20
9.79624
11
17.1438
21
9.8091
0
LINE
8
BLACK
6
CONTINUOUS
10
17.1438
20
9.8091
11
17.1449
21
9.81029
0
LINE
8
BLACK
6
CONTINUOUS
10
17.1449
20
9.81029
11
17.2401
21
9.85791
0
LINE
8
BLACK
6
CONTINUOUS
10
17.2401
20
9.85791
11
17.2651
21
9.86534
0
LINE
8
BLACK
6
CONTINUOUS
10
17.2651
20
9.86534
11
17.2694
21
9.8643
0
LINE
8
BLACK
6
CONTINUOUS
10
17.2694
20
9.8643
11
17.2737
21
9.86583
0
LINE
8
BLACK
6
CONTINUOUS
10
17.2737
20
9.86583
11
17.4641
21
9.86583
0
LINE
8
BLACK
6
CONTINUOUS
10
17.4641
20
9.86583
11
17.4898
21
9.86131
0
LINE
8
BLACK
6
CONTINUOUS
10
17.4898
20
9.86131
11
17.4932
21
9.85842
0
LINE
8
BLACK
6
CONTINUOUS
10
17.4932
20
9.85842
11
17.4977
21
9.85791
0
LINE
8
BLACK
6
CONTINUOUS
10
17.4977
20
9.85791
11
17.5559
21
9.8288
0
LINE
8
BLACK
6
CONTINUOUS
10
17.5559
20
9.8288
11
17.5374
21
9.90289
0
LINE
8
BLACK
6
CONTINUOUS
10
17.5374
20
9.90289
11
17.4535
21
10.0288
0
LINE
8
BLACK
6
CONTINUOUS
10
17.4535
20
10.0288
11
17.4197
21
10.0625
0
LINE
8
BLACK
6
CONTINUOUS
10
17.4197
20
10.0625
11
17.3512
21
10.0968
0
LINE
8
BLACK
6
CONTINUOUS
10
17.3512
20
10.0968
11
17.1784
21
10.0968
0
LINE
8
BLACK
6
CONTINUOUS
10
17.1784
20
10.0968
11
17.1528
21
10.1013
0
LINE
8
BLACK
6
CONTINUOUS
10
17.1528
20
10.1013
11
17.1135
21
10.1343
0
LINE
8
BLACK
6
CONTINUOUS
10
17.1135
20
10.1343
11
17.1046
21
10.1848
0
LINE
8
BLACK
6
CONTINUOUS
10
17.1046
20
10.1848
11
17.1302
21
10.2292
0
LINE
8
BLACK
6
CONTINUOUS
10
17.1302
20
10.2292
11
17.1784
21
10.2468
0
LINE
8
BLACK
6
CONTINUOUS
10
17.1784
20
10.2468
11
17.3689
21
10.2468
0
LINE
8
BLACK
6
CONTINUOUS
10
17.3689
20
10.2468
11
17.3946
21
10.2423
0
LINE
8
BLACK
6
CONTINUOUS
10
17.2228
20
9.68157
11
17.1924
21
9.65116
0
LINE
8
BLACK
6
CONTINUOUS
10
17.1924
20
9.65116
11
17.1582
21
9.58265
0
LINE
8
BLACK
6
CONTINUOUS
10
17.1582
20
9.58265
11
17.1582
21
9.37996
0
LINE
8
BLACK
6
CONTINUOUS
10
17.1582
20
9.37996
11
17.1924
21
9.31145
0
LINE
8
BLACK
6
CONTINUOUS
10
17.1924
20
9.31145
11
17.2228
21
9.28104
0
LINE
8
BLACK
6
CONTINUOUS
10
17.2228
20
9.28104
11
17.2914
21
9.24678
0
LINE
8
BLACK
6
CONTINUOUS
10
17.2914
20
9.24678
11
17.4464
21
9.24678
0
LINE
8
BLACK
6
CONTINUOUS
10
17.4464
20
9.24678
11
17.5149
21
9.28104
0
LINE
8
BLACK
6
CONTINUOUS
10
17.5149
20
9.28104
11
17.5454
21
9.31145
0
LINE
8
BLACK
6
CONTINUOUS
10
17.5454
20
9.31145
11
17.5796
21
9.37996
0
LINE
8
BLACK
6
CONTINUOUS
10
17.5796
20
9.37996
11
17.5796
21
9.58265
0
LINE
8
BLACK
6
CONTINUOUS
10
17.5796
20
9.58265
11
17.5454
21
9.65116
0
LINE
8
BLACK
6
CONTINUOUS
10
17.5454
20
9.65116
11
17.5149
21
9.68157
0
LINE
8
BLACK
6
CONTINUOUS
10
17.5149
20
9.68157
11
17.4464
21
9.71583
0
LINE
8
BLACK
6
CONTINUOUS
10
17.4464
20
9.71583
11
17.2914
21
9.71583
0
LINE
8
BLACK
6
CONTINUOUS
10
17.2914
20
9.71583
11
17.2228
21
9.68157
0
LINE
8
BLACK
6
CONTINUOUS
10
18.3434
20
10.2429
11
18.345
21
10.2429
0
LINE
8
BLACK
6
CONTINUOUS
10
18.345
20
10.2429
11
18.4879
21
10.1953
0
LINE
8
BLACK
6
CONTINUOUS
10
18.4879
20
10.1953
11
18.5108
21
10.1829
0
LINE
8
BLACK
6
CONTINUOUS
10
18.5108
20
10.1829
11
18.5131
21
10.1791
0
LINE
8
BLACK
6
CONTINUOUS
10
18.5131
20
10.1791
11
18.5172
21
10.1772
0
LINE
8
BLACK
6
CONTINUOUS
10
18.5172
20
10.1772
11
18.6124
21
10.082
0
LINE
8
BLACK
6
CONTINUOUS
10
18.6124
20
10.082
11
18.6253
21
10.0636
0
LINE
8
BLACK
6
CONTINUOUS
10
18.6253
20
10.0636
11
18.6265
21
10.0625
0
LINE
8
BLACK
6
CONTINUOUS
10
18.6265
20
10.0625
11
18.6741
21
9.96723
0
LINE
8
BLACK
6
CONTINUOUS
10
18.6741
20
9.96723
11
18.6778
21
9.95482
0
LINE
8
BLACK
6
CONTINUOUS
10
18.6778
20
9.95482
11
18.6798
21
9.95188
0
LINE
8
BLACK
6
CONTINUOUS
10
18.6798
20
9.95188
11
18.7274
21
9.7614
0
LINE
8
BLACK
6
CONTINUOUS
10
18.7274
20
9.7614
11
18.7284
21
9.74647
0
LINE
8
BLACK
6
CONTINUOUS
10
18.7284
20
9.74647
11
18.7296
21
9.74321
0
LINE
8
BLACK
6
CONTINUOUS
10
18.7296
20
9.74321
11
18.7296
21
9.60035
0
LINE
8
BLACK
6
CONTINUOUS
10
18.7296
20
9.60035
11
18.727
21
9.58561
0
LINE
8
BLACK
6
CONTINUOUS
10
18.727
20
9.58561
11
18.7274
21
9.58216
0
LINE
8
BLACK
6
CONTINUOUS
10
18.7274
20
9.58216
11
18.6798
21
9.39169
0
LINE
8
BLACK
6
CONTINUOUS
10
18.6798
20
9.39169
11
18.6745
21
9.37986
0
LINE
8
BLACK
6
CONTINUOUS
10
18.6745
20
9.37986
11
18.6741
21
9.37634
0
LINE
8
BLACK
6
CONTINUOUS
10
18.6741
20
9.37634
11
18.6265
21
9.2811
0
LINE
8
BLACK
6
CONTINUOUS
10
18.6265
20
9.2811
11
18.6131
21
9.26309
0
LINE
8
BLACK
6
CONTINUOUS
10
18.6131
20
9.26309
11
18.6124
21
9.26161
0
LINE
8
BLACK
6
CONTINUOUS
10
18.6124
20
9.26161
11
18.5172
21
9.16637
0
LINE
8
BLACK
6
CONTINUOUS
10
18.5172
20
9.16637
11
18.4958
21
9.15143
0
LINE
8
BLACK
6
CONTINUOUS
10
18.4958
20
9.15143
11
18.4914
21
9.15104
0
LINE
8
BLACK
6
CONTINUOUS
10
18.4914
20
9.15104
11
18.4879
21
9.14825
0
LINE
8
BLACK
6
CONTINUOUS
10
18.4879
20
9.14825
11
18.345
21
9.10063
0
LINE
8
BLACK
6
CONTINUOUS
10
18.345
20
9.10063
11
18.3228
21
9.09734
0
LINE
8
BLACK
6
CONTINUOUS
10
18.3228
20
9.09734
11
18.3213
21
9.09678
0
LINE
8
BLACK
6
CONTINUOUS
10
18.3213
20
9.09678
11
18.226
21
9.09678
0
LINE
8
BLACK
6
CONTINUOUS
10
18.226
20
9.09678
11
18.204
21
9.10067
0
LINE
8
BLACK
6
CONTINUOUS
10
18.204
20
9.10067
11
18.2023
21
9.10063
0
LINE
8
BLACK
6
CONTINUOUS
10
18.2023
20
9.10063
11
18.0595
21
9.14825
0
LINE
8
BLACK
6
CONTINUOUS
10
18.0595
20
9.14825
11
18.0366
21
9.16065
0
LINE
8
BLACK
6
CONTINUOUS
10
18.0366
20
9.16065
11
18.0342
21
9.16447
0
LINE
8
BLACK
6
CONTINUOUS
10
18.0342
20
9.16447
11
18.0302
21
9.16637
0
LINE
8
BLACK
6
CONTINUOUS
10
18.0302
20
9.16637
11
17.9825
21
9.21399
0
LINE
8
BLACK
6
CONTINUOUS
10
17.9825
20
9.21399
11
17.9676
21
9.23532
0
LINE
8
BLACK
6
CONTINUOUS
10
17.9676
20
9.23532
11
17.9631
21
9.28643
0
LINE
8
BLACK
6
CONTINUOUS
10
17.9631
20
9.28643
11
17.9925
21
9.32846
0
LINE
8
BLACK
6
CONTINUOUS
10
17.9925
20
9.32846
11
18.0421
21
9.34173
0
LINE
8
BLACK
6
CONTINUOUS
10
18.0421
20
9.34173
11
18.0886
21
9.32005
0
LINE
8
BLACK
6
CONTINUOUS
10
18.0886
20
9.32005
11
18.1237
21
9.28495
0
LINE
8
BLACK
6
CONTINUOUS
10
18.1237
20
9.28495
11
18.2382
21
9.24678
0
LINE
8
BLACK
6
CONTINUOUS
10
18.2382
20
9.24678
11
18.3091
21
9.24678
0
LINE
8
BLACK
6
CONTINUOUS
10
18.3091
20
9.24678
11
18.4236
21
9.28495
0
LINE
8
BLACK
6
CONTINUOUS
10
18.4236
20
9.28495
11
18.4977
21
9.35907
0
LINE
8
BLACK
6
CONTINUOUS
10
18.4977
20
9.35907
11
18.5362
21
9.43605
0
LINE
8
BLACK
6
CONTINUOUS
10
18.5362
20
9.43605
11
18.5796
21
9.60959
0
LINE
8
BLACK
6
CONTINUOUS
10
18.5796
20
9.60959
11
18.5796
21
9.73398
0
LINE
8
BLACK
6
CONTINUOUS
10
18.5796
20
9.73398
11
18.5362
21
9.90751
0
LINE
8
BLACK
6
CONTINUOUS
10
18.5362
20
9.90751
11
18.4977
21
9.9845
0
LINE
8
BLACK
6
CONTINUOUS
10
18.4977
20
9.9845
11
18.4236
21
10.0586
0
LINE
8
BLACK
6
CONTINUOUS
10
18.4236
20
10.0586
11
18.3091
21
10.0968
0
LINE
8
BLACK
6
CONTINUOUS
10
18.3091
20
10.0968
11
18.2382
21
10.0968
0
LINE
8
BLACK
6
CONTINUOUS
10
18.2382
20
10.0968
11
18.1237
21
10.0586
0
LINE
8
BLACK
6
CONTINUOUS
10
18.1237
20
10.0586
11
18.0886
21
10.0235
0
LINE
8
BLACK
6
CONTINUOUS
10
18.0886
20
10.0235
11
18.0673
21
10.0086
0
LINE
8
BLACK
6
CONTINUOUS
10
18.0673
20
10.0086
11
18.0162
21
10.0041
0
LINE
8
BLACK
6
CONTINUOUS
10
18.0162
20
10.0041
11
17.9741
21
10.0335
0
LINE
8
BLACK
6
CONTINUOUS
10
17.9741
20
10.0335
11
17.9609
21
10.0831
0
LINE
8
BLACK
6
CONTINUOUS
10
17.9609
20
10.0831
11
17.9825
21
10.1296
0
LINE
8
BLACK
6
CONTINUOUS
10
17.9825
20
10.1296
11
18.0302
21
10.1772
0
LINE
8
BLACK
6
CONTINUOUS
10
18.0302
20
10.1772
11
18.0515
21
10.1921
0
LINE
8
BLACK
6
CONTINUOUS
10
18.0515
20
10.1921
11
18.056
21
10.1925
0
LINE
8
BLACK
6
CONTINUOUS
10
18.056
20
10.1925
11
18.0595
21
10.1953
0
LINE
8
BLACK
6
CONTINUOUS
10
18.0595
20
10.1953
11
18.2023
21
10.2429
0
LINE
8
BLACK
6
CONTINUOUS
10
18.2023
20
10.2429
11
18.2245
21
10.2462
0
LINE
8
BLACK
6
CONTINUOUS
10
18.2245
20
10.2462
11
18.226
21
10.2468
0
LINE
8
BLACK
6
CONTINUOUS
10
18.226
20
10.2468
11
18.3213
21
10.2468
0
LINE
8
BLACK
6
CONTINUOUS
10
18.3213
20
10.2468
11
18.3434
21
10.2429
0
LINE
8
BLACK
6
CONTINUOUS
10
12.7747
20
10.2451
11
12.778
21
10.2456
0
LINE
8
BLACK
6
CONTINUOUS
10
12.778
20
10.2456
11
12.7809
21
10.244
0
LINE
8
BLACK
6
CONTINUOUS
10
12.7809
20
10.244
11
12.7906
21
10.2423
0
LINE
8
BLACK
6
CONTINUOUS
10
12.7906
20
10.2423
11
12.8056
21
10.2297
0
LINE
8
BLACK
6
CONTINUOUS
10
12.8056
20
10.2297
11
12.8224
21
10.22
0
LINE
8
BLACK
6
CONTINUOUS
10
12.8224
20
10.22
11
12.8248
21
10.2136
0
LINE
8
BLACK
6
CONTINUOUS
10
12.8248
20
10.2136
11
12.8299
21
10.2093
0
LINE
8
BLACK
6
CONTINUOUS
10
12.8299
20
10.2093
11
12.8333
21
10.1901
0
LINE
8
BLACK
6
CONTINUOUS
10
12.8333
20
10.1901
11
12.84
21
10.1718
0
LINE
8
BLACK
6
CONTINUOUS
10
12.84
20
10.1718
11
12.84
21
9.17178
0
LINE
8
BLACK
6
CONTINUOUS
10
12.84
20
9.17178
11
12.8355
21
9.14613
0
LINE
8
BLACK
6
CONTINUOUS
10
12.8355
20
9.14613
11
12.8025
21
9.10683
0
LINE
8
BLACK
6
CONTINUOUS
10
12.8025
20
9.10683
11
12.752
21
9.09792
0
LINE
8
BLACK
6
CONTINUOUS
10
12.752
20
9.09792
11
12.7075
21
9.12357
0
LINE
8
BLACK
6
CONTINUOUS
10
12.7075
20
9.12357
11
12.69
21
9.17178
0
LINE
8
BLACK
6
CONTINUOUS
10
12.69
20
9.17178
11
12.69
21
9.57297
0
LINE
8
BLACK
6
CONTINUOUS
10
12.69
20
9.57297
11
12.5659
21
9.57297
0
LINE
8
BLACK
6
CONTINUOUS
10
12.5659
20
9.57297
11
12.255
21
9.12877
0
LINE
8
BLACK
6
CONTINUOUS
10
12.255
20
9.12877
11
12.2366
21
9.11035
0
LINE
8
BLACK
6
CONTINUOUS
10
12.2366
20
9.11035
11
12.187
21
9.09706
0
LINE
8
BLACK
6
CONTINUOUS
10
12.187
20
9.09706
11
12.1405
21
9.11874
0
LINE
8
BLACK
6
CONTINUOUS
10
12.1405
20
9.11874
11
12.1189
21
9.16523
0
LINE
8
BLACK
6
CONTINUOUS
10
12.1189
20
9.16523
11
12.1321
21
9.21479
0
LINE
8
BLACK
6
CONTINUOUS
10
12.1321
20
9.21479
11
12.383
21
9.57316
0
LINE
8
BLACK
6
CONTINUOUS
10
12.383
20
9.57316
11
12.3584
21
9.57749
0
LINE
8
BLACK
6
CONTINUOUS
10
12.3584
20
9.57749
11
12.355
21
9.58038
0
LINE
8
BLACK
6
CONTINUOUS
10
12.355
20
9.58038
11
12.3505
21
9.58089
0
LINE
8
BLACK
6
CONTINUOUS
10
12.3505
20
9.58089
11
12.2553
21
9.62851
0
LINE
8
BLACK
6
CONTINUOUS
10
12.2553
20
9.62851
11
12.2373
21
9.64187
0
LINE
8
BLACK
6
CONTINUOUS
10
12.2373
20
9.64187
11
12.2358
21
9.64256
0
LINE
8
BLACK
6
CONTINUOUS
10
12.2358
20
9.64256
11
12.1882
21
9.69018
0
LINE
8
BLACK
6
CONTINUOUS
10
12.1882
20
9.69018
11
12.1753
21
9.70854
0
LINE
8
BLACK
6
CONTINUOUS
10
12.1753
20
9.70854
11
12.1741
21
9.70967
0
LINE
8
BLACK
6
CONTINUOUS
10
12.1741
20
9.70967
11
12.1265
21
9.80491
0
LINE
8
BLACK
6
CONTINUOUS
10
12.1265
20
9.80491
11
12.1191
21
9.82987
0
LINE
8
BLACK
6
CONTINUOUS
10
12.1191
20
9.82987
11
12.1201
21
9.83423
0
LINE
8
BLACK
6
CONTINUOUS
10
12.1201
20
9.83423
11
12.1186
21
9.83845
0
LINE
8
BLACK
6
CONTINUOUS
10
12.1186
20
9.83845
11
12.1186
21
9.9813
0
LINE
8
BLACK
6
CONTINUOUS
10
12.1186
20
9.9813
11
12.1231
21
10.007
0
LINE
8
BLACK
6
CONTINUOUS
10
12.1231
20
10.007
11
12.126
21
10.0104
0
LINE
8
BLACK
6
CONTINUOUS
10
12.126
20
10.0104
11
12.1265
21
10.0148
0
LINE
8
BLACK
6
CONTINUOUS
10
12.1265
20
10.0148
11
12.1741
21
10.1101
0
LINE
8
BLACK
6
CONTINUOUS
10
12.1741
20
10.1101
11
12.1875
21
10.1281
0
LINE
8
BLACK
6
CONTINUOUS
10
12.1875
20
10.1281
11
12.1882
21
10.1296
0
LINE
8
BLACK
6
CONTINUOUS
10
12.1882
20
10.1296
11
12.2358
21
10.1772
0
LINE
8
BLACK
6
CONTINUOUS
10
12.2358
20
10.1772
11
12.2541
21
10.1901
0
LINE
8
BLACK
6
CONTINUOUS
10
12.2541
20
10.1901
11
12.2553
21
10.1912
0
LINE
8
BLACK
6
CONTINUOUS
10
12.2553
20
10.1912
11
12.3505
21
10.2389
0
LINE
8
BLACK
6
CONTINUOUS
10
12.3505
20
10.2389
11
12.3755
21
10.2463
0
LINE
8
BLACK
6
CONTINUOUS
10
12.3755
20
10.2463
11
12.3798
21
10.2452
0
LINE
8
BLACK
6
CONTINUOUS
10
12.3798
20
10.2452
11
12.384
21
10.2468
0
LINE
8
BLACK
6
CONTINUOUS
10
12.384
20
10.2468
11
12.765
21
10.2468
0
LINE
8
BLACK
6
CONTINUOUS
10
12.765
20
10.2468
11
12.7747
21
10.2451
0
LINE
8
BLACK
6
CONTINUOUS
10
12.3332
20
10.0625
11
12.3028
21
10.0321
0
LINE
8
BLACK
6
CONTINUOUS
10
12.3028
20
10.0321
11
12.2686
21
9.9636
0
LINE
8
BLACK
6
CONTINUOUS
10
12.2686
20
9.9636
11
12.2686
21
9.85615
0
LINE
8
BLACK
6
CONTINUOUS
10
12.2686
20
9.85615
11
12.3028
21
9.78764
0
LINE
8
BLACK
6
CONTINUOUS
10
12.3028
20
9.78764
11
12.3332
21
9.75723
0
LINE
8
BLACK
6
CONTINUOUS
10
12.3332
20
9.75723
11
12.4017
21
9.72297
0
LINE
8
BLACK
6
CONTINUOUS
10
12.4017
20
9.72297
11
12.69
21
9.72297
0
LINE
8
BLACK
6
CONTINUOUS
10
12.69
20
9.72297
11
12.69
21
10.0968
0
LINE
8
BLACK
6
CONTINUOUS
10
12.69
20
10.0968
11
12.4017
21
10.0968
0
LINE
8
BLACK
6
CONTINUOUS
10
12.4017
20
10.0968
11
12.3332
21
10.0625
0
LINE
8
BLACK
6
CONTINUOUS
10
19.9623
20
9.33443
11
19.9798
21
9.292
0
LINE
8
BLACK
6
CONTINUOUS
10
19.9798
20
9.292
11
19.9623
21
9.24957
0
LINE
8
BLACK
6
CONTINUOUS
10
19.9623
20
9.24957
11
19.9198
21
9.232
0
LINE
8
BLACK
6
CONTINUOUS
10
19.9198
20
9.232
11
19.7042
21
9.232
0
LINE
8
BLACK
6
CONTINUOUS
10
19.7042
20
9.232
11
19.6617
21
9.24957
0
LINE
8
BLACK
6
CONTINUOUS
10
19.6617
20
9.24957
11
19.6442
21
9.292
0
LINE
8
BLACK
6
CONTINUOUS
10
19.6442
20
9.292
11
19.6617
21
9.33443
0
LINE
8
BLACK
6
CONTINUOUS
10
19.6617
20
9.33443
11
19.7042
21
9.352
0
LINE
8
BLACK
6
CONTINUOUS
10
19.7042
20
9.352
11
19.9198
21
9.352
0
LINE
8
BLACK
6
CONTINUOUS
10
19.9198
20
9.352
11
19.9623
21
9.33443
0
LINE
8
BLACK
6
CONTINUOUS
10
14.3724
20
9.3938
11
14.39
21
9.35137
0
LINE
8
BLACK
6
CONTINUOUS
10
14.39
20
9.35137
11
14.3724
21
9.30895
0
LINE
8
BLACK
6
CONTINUOUS
10
14.3724
20
9.30895
11
14.33
21
9.29138
0
LINE
8
BLACK
6
CONTINUOUS
10
14.33
20
9.29138
11
14.0227
21
9.29138
0
LINE
8
BLACK
6
CONTINUOUS
10
14.0227
20
9.29138
11
13.9803
21
9.30895
0
LINE
8
BLACK
6
CONTINUOUS
10
13.9803
20
9.30895
11
13.9627
21
9.35137
0
LINE
8
BLACK
6
CONTINUOUS
10
13.9627
20
9.35137
11
13.9803
21
9.3938
0
LINE
8
BLACK
6
CONTINUOUS
10
13.9803
20
9.3938
11
14.0227
21
9.41137
0
LINE
8
BLACK
6
CONTINUOUS
10
14.0227
20
9.41137
11
14.33
21
9.41137
0
LINE
8
BLACK
6
CONTINUOUS
10
14.33
20
9.41137
11
14.3724
21
9.3938
0
LINE
8
BLACK
6
CONTINUOUS
10
19.9623
20
10.0544
11
19.9798
21
10.012
0
LINE
8
BLACK
6
CONTINUOUS
10
19.9798
20
10.012
11
19.9623
21
9.96957
0
LINE
8
BLACK
6
CONTINUOUS
10
19.9623
20
9.96957
11
19.9198
21
9.952
0
LINE
8
BLACK
6
CONTINUOUS
10
19.9198
20
9.952
11
19.7042
21
9.952
0
LINE
8
BLACK
6
CONTINUOUS
10
19.7042
20
9.952
11
19.6617
21
9.96957
0
LINE
8
BLACK
6
CONTINUOUS
10
19.6617
20
9.96957
11
19.6442
21
10.012
0
LINE
8
BLACK
6
CONTINUOUS
10
19.6442
20
10.012
11
19.6617
21
10.0544
0
LINE
8
BLACK
6
CONTINUOUS
10
19.6617
20
10.0544
11
19.7042
21
10.072
0
LINE
8
BLACK
6
CONTINUOUS
10
19.7042
20
10.072
11
19.9198
21
10.072
0
LINE
8
BLACK
6
CONTINUOUS
10
19.9198
20
10.072
11
19.9623
21
10.0544
0
LINE
8
BLACK
6
CONTINUOUS
10
14.3724
20
10.1538
11
14.39
21
10.1114
0
LINE
8
BLACK
6
CONTINUOUS
10
14.39
20
10.1114
11
14.3724
21
10.0689
0
LINE
8
BLACK
6
CONTINUOUS
10
14.3724
20
10.0689
11
14.33
21
10.0514
0
LINE
8
BLACK
6
CONTINUOUS
10
14.33
20
10.0514
11
14.0227
21
10.0514
0
LINE
8
BLACK
6
CONTINUOUS
10
14.0227
20
10.0514
11
13.9803
21
10.0689
0
LINE
8
BLACK
6
CONTINUOUS
10
13.9803
20
10.0689
11
13.9627
21
10.1114
0
LINE
8
BLACK
6
CONTINUOUS
10
13.9627
20
10.1114
11
13.9803
21
10.1538
0
LINE
8
BLACK
6
CONTINUOUS
10
13.9803
20
10.1538
11
14.0227
21
10.1714
0
LINE
8
BLACK
6
CONTINUOUS
10
14.0227
20
10.1714
11
14.33
21
10.1714
0
LINE
8
BLACK
6
CONTINUOUS
10
14.33
20
10.1714
11
14.3724
21
10.1538
0
LINE
8
BLACK
6
CONTINUOUS
10
17.4898
20
11.5123
11
17.4932
21
11.5094
0
LINE
8
BLACK
6
CONTINUOUS
10
17.4932
20
11.5094
11
17.4977
21
11.5089
0
LINE
8
BLACK
6
CONTINUOUS
10
17.4977
20
11.5089
11
17.5929
21
11.4612
0
LINE
8
BLACK
6
CONTINUOUS
10
17.5929
20
11.4612
11
17.6109
21
11.4479
0
LINE
8
BLACK
6
CONTINUOUS
10
17.6109
20
11.4479
11
17.6124
21
11.4472
0
LINE
8
BLACK
6
CONTINUOUS
10
17.6124
20
11.4472
11
17.66
21
11.3996
0
LINE
8
BLACK
6
CONTINUOUS
10
17.66
20
11.3996
11
17.6729
21
11.3812
0
LINE
8
BLACK
6
CONTINUOUS
10
17.6729
20
11.3812
11
17.6741
21
11.3801
0
LINE
8
BLACK
6
CONTINUOUS
10
17.6741
20
11.3801
11
17.7217
21
11.2848
0
LINE
8
BLACK
6
CONTINUOUS
10
17.7217
20
11.2848
11
17.7291
21
11.2599
0
LINE
8
BLACK
6
CONTINUOUS
10
17.7291
20
11.2599
11
17.7281
21
11.2555
0
LINE
8
BLACK
6
CONTINUOUS
10
17.7281
20
11.2555
11
17.7296
21
11.2513
0
LINE
8
BLACK
6
CONTINUOUS
10
17.7296
20
11.2513
11
17.7296
21
11.0132
0
LINE
8
BLACK
6
CONTINUOUS
10
17.7296
20
11.0132
11
17.7251
21
10.9876
0
LINE
8
BLACK
6
CONTINUOUS
10
17.7251
20
10.9876
11
17.7222
21
10.9841
0
LINE
8
BLACK
6
CONTINUOUS
10
17.7222
20
10.9841
11
17.7217
21
10.9797
0
LINE
8
BLACK
6
CONTINUOUS
10
17.7217
20
10.9797
11
17.6741
21
10.8844
0
LINE
8
BLACK
6
CONTINUOUS
10
17.6741
20
10.8844
11
17.6607
21
10.8664
0
LINE
8
BLACK
6
CONTINUOUS
10
17.6607
20
10.8664
11
17.66
21
10.8649
0
LINE
8
BLACK
6
CONTINUOUS
10
17.66
20
10.8649
11
17.6124
21
10.8173
0
LINE
8
BLACK
6
CONTINUOUS
10
17.6124
20
10.8173
11
17.594
21
10.8045
0
LINE
8
BLACK
6
CONTINUOUS
10
17.594
20
10.8045
11
17.5929
21
10.8033
0
LINE
8
BLACK
6
CONTINUOUS
10
17.5929
20
10.8033
11
17.4977
21
10.7557
0
LINE
8
BLACK
6
CONTINUOUS
10
17.4977
20
10.7557
11
17.4727
21
10.7482
0
LINE
8
BLACK
6
CONTINUOUS
10
17.4727
20
10.7482
11
17.4684
21
10.7493
0
LINE
8
BLACK
6
CONTINUOUS
10
17.4684
20
10.7493
11
17.4641
21
10.7477
0
LINE
8
BLACK
6
CONTINUOUS
10
17.4641
20
10.7477
11
17.2737
21
10.7477
0
LINE
8
BLACK
6
CONTINUOUS
10
17.2737
20
10.7477
11
17.248
21
10.7523
0
LINE
8
BLACK
6
CONTINUOUS
10
17.248
20
10.7523
11
17.2446
21
10.7551
0
LINE
8
BLACK
6
CONTINUOUS
10
17.2446
20
10.7551
11
17.2401
21
10.7557
0
LINE
8
BLACK
6
CONTINUOUS
10
17.2401
20
10.7557
11
17.1819
21
10.7848
0
LINE
8
BLACK
6
CONTINUOUS
10
17.1819
20
10.7848
11
17.2004
21
10.7107
0
LINE
8
BLACK
6
CONTINUOUS
10
17.2004
20
10.7107
11
17.2843
21
10.5848
0
LINE
8
BLACK
6
CONTINUOUS
10
17.2843
20
10.5848
11
17.3181
21
10.551
0
LINE
8
BLACK
6
CONTINUOUS
10
17.3181
20
10.551
11
17.3866
21
10.5168
0
LINE
8
BLACK
6
CONTINUOUS
10
17.3866
20
10.5168
11
17.5594
21
10.5168
0
LINE
8
BLACK
6
CONTINUOUS
10
17.5594
20
10.5168
11
17.585
21
10.5123
0
LINE
8
BLACK
6
CONTINUOUS
10
17.585
20
10.5123
11
17.6243
21
10.4793
0
LINE
8
BLACK
6
CONTINUOUS
10
17.6243
20
10.4793
11
17.6332
21
10.4288
0
LINE
8
BLACK
6
CONTINUOUS
10
17.6332
20
10.4288
11
17.6076
21
10.3843
0
LINE
8
BLACK
6
CONTINUOUS
10
17.6076
20
10.3843
11
17.5594
21
10.3668
0
LINE
8
BLACK
6
CONTINUOUS
10
17.5594
20
10.3668
11
17.3689
21
10.3668
0
LINE
8
BLACK
6
CONTINUOUS
10
17.3689
20
10.3668
11
17.3432
21
10.3713
0
LINE
8
BLACK
6
CONTINUOUS
10
17.3432
20
10.3713
11
17.3398
21
10.3742
0
LINE
8
BLACK
6
CONTINUOUS
10
17.3398
20
10.3742
11
17.3354
21
10.3747
0
LINE
8
BLACK
6
CONTINUOUS
10
17.3354
20
10.3747
11
17.2401
21
10.4223
0
LINE
8
BLACK
6
CONTINUOUS
10
17.2401
20
10.4223
11
17.2221
21
10.4357
0
LINE
8
BLACK
6
CONTINUOUS
10
17.2221
20
10.4357
11
17.2206
21
10.4364
0
LINE
8
BLACK
6
CONTINUOUS
10
17.2206
20
10.4364
11
17.173
21
10.484
0
LINE
8
BLACK
6
CONTINUOUS
10
17.173
20
10.484
11
17.1665
21
10.4933
0
LINE
8
BLACK
6
CONTINUOUS
10
17.1665
20
10.4933
11
17.1636
21
10.4954
0
LINE
8
BLACK
6
CONTINUOUS
10
17.1636
20
10.4954
11
17.0684
21
10.6383
0
LINE
8
BLACK
6
CONTINUOUS
10
17.0684
20
10.6383
11
17.0583
21
10.6613
0
LINE
8
BLACK
6
CONTINUOUS
10
17.0583
20
10.6613
11
17.058
21
10.6617
0
LINE
8
BLACK
6
CONTINUOUS
10
17.058
20
10.6617
11
17.0104
21
10.8522
0
LINE
8
BLACK
6
CONTINUOUS
10
17.0104
20
10.8522
11
17.0094
21
10.8671
0
LINE
8
BLACK
6
CONTINUOUS
10
17.0094
20
10.8671
11
17.0082
21
10.8704
0
LINE
8
BLACK
6
CONTINUOUS
10
17.0082
20
10.8704
11
17.0082
21
11.2513
0
LINE
8
BLACK
6
CONTINUOUS
10
17.0082
20
11.2513
11
17.0127
21
11.277
0
LINE
8
BLACK
6
CONTINUOUS
10
17.0127
20
11.277
11
17.0156
21
11.2804
0
LINE
8
BLACK
6
CONTINUOUS
10
17.0156
20
11.2804
11
17.0161
21
11.2848
0
LINE
8
BLACK
6
CONTINUOUS
10
17.0161
20
11.2848
11
17.0637
21
11.3801
0
LINE
8
BLACK
6
CONTINUOUS
10
17.0637
20
11.3801
11
17.0771
21
11.3981
0
LINE
8
BLACK
6
CONTINUOUS
10
17.0771
20
11.3981
11
17.0778
21
11.3996
0
LINE
8
BLACK
6
CONTINUOUS
10
17.0778
20
11.3996
11
17.1254
21
11.4472
0
LINE
8
BLACK
6
CONTINUOUS
10
17.1254
20
11.4472
11
17.1438
21
11.4601
0
LINE
8
BLACK
6
CONTINUOUS
10
17.1438
20
11.4601
11
17.1449
21
11.4612
0
LINE
8
BLACK
6
CONTINUOUS
10
17.1449
20
11.4612
11
17.2401
21
11.5089
0
LINE
8
BLACK
6
CONTINUOUS
10
17.2401
20
11.5089
11
17.2651
21
11.5163
0
LINE
8
BLACK
6
CONTINUOUS
10
17.2651
20
11.5163
11
17.2694
21
11.5152
0
LINE
8
BLACK
6
CONTINUOUS
10
17.2694
20
11.5152
11
17.2737
21
11.5168
0
LINE
8
BLACK
6
CONTINUOUS
10
17.2737
20
11.5168
11
17.4641
21
11.5168
0
LINE
8
BLACK
6
CONTINUOUS
10
17.4641
20
11.5168
11
17.4898
21
11.5123
0
LINE
8
BLACK
6
CONTINUOUS
10
17.2228
20
11.3325
11
17.1924
21
11.3021
0
LINE
8
BLACK
6
CONTINUOUS
10
17.1924
20
11.3021
11
17.1582
21
11.2336
0
LINE
8
BLACK
6
CONTINUOUS
10
17.1582
20
11.2336
11
17.1582
21
11.0309
0
LINE
8
BLACK
6
CONTINUOUS
10
17.1582
20
11.0309
11
17.1924
21
10.9624
0
LINE
8
BLACK
6
CONTINUOUS
10
17.1924
20
10.9624
11
17.2228
21
10.932
0
LINE
8
BLACK
6
CONTINUOUS
10
17.2228
20
10.932
11
17.2914
21
10.8977
0
LINE
8
BLACK
6
CONTINUOUS
10
17.2914
20
10.8977
11
17.4464
21
10.8977
0
LINE
8
BLACK
6
CONTINUOUS
10
17.4464
20
10.8977
11
17.5149
21
10.932
0
LINE
8
BLACK
6
CONTINUOUS
10
17.5149
20
10.932
11
17.5454
21
10.9624
0
LINE
8
BLACK
6
CONTINUOUS
10
17.5454
20
10.9624
11
17.5796
21
11.0309
0
LINE
8
BLACK
6
CONTINUOUS
10
17.5796
20
11.0309
11
17.5796
21
11.2336
0
LINE
8
BLACK
6
CONTINUOUS
10
17.5796
20
11.2336
11
17.5454
21
11.3021
0
LINE
8
BLACK
6
CONTINUOUS
10
17.5454
20
11.3021
11
17.5149
21
11.3325
0
LINE
8
BLACK
6
CONTINUOUS
10
17.5149
20
11.3325
11
17.4464
21
11.3668
0
LINE
8
BLACK
6
CONTINUOUS
10
17.4464
20
11.3668
11
17.2914
21
11.3668
0
LINE
8
BLACK
6
CONTINUOUS
10
17.2914
20
11.3668
11
17.2228
21
11.3325
0
LINE
8
BLACK
6
CONTINUOUS
10
18.3434
20
11.5129
11
18.345
21
11.5129
0
LINE
8
BLACK
6
CONTINUOUS
10
18.345
20
11.5129
11
18.4879
21
11.4653
0
LINE
8
BLACK
6
CONTINUOUS
10
18.4879
20
11.4653
11
18.5108
21
11.4529
0
LINE
8
BLACK
6
CONTINUOUS
10
18.5108
20
11.4529
11
18.5131
21
11.4491
0
LINE
8
BLACK
6
CONTINUOUS
10
18.5131
20
11.4491
11
18.5172
21
11.4472
0
LINE
8
BLACK
6
CONTINUOUS
10
18.5172
20
11.4472
11
18.6124
21
11.352
0
LINE
8
BLACK
6
CONTINUOUS
10
18.6124
20
11.352
11
18.6253
21
11.3336
0
LINE
8
BLACK
6
CONTINUOUS
10
18.6253
20
11.3336
11
18.6265
21
11.3325
0
LINE
8
BLACK
6
CONTINUOUS
10
18.6265
20
11.3325
11
18.6741
21
11.2372
0
LINE
8
BLACK
6
CONTINUOUS
10
18.6741
20
11.2372
11
18.6778
21
11.2248
0
LINE
8
BLACK
6
CONTINUOUS
10
18.6778
20
11.2248
11
18.6798
21
11.2219
0
LINE
8
BLACK
6
CONTINUOUS
10
18.6798
20
11.2219
11
18.7274
21
11.0314
0
LINE
8
BLACK
6
CONTINUOUS
10
18.7274
20
11.0314
11
18.7284
21
11.0165
0
LINE
8
BLACK
6
CONTINUOUS
10
18.7284
20
11.0165
11
18.7296
21
11.0132
0
LINE
8
BLACK
6
CONTINUOUS
10
18.7296
20
11.0132
11
18.7296
21
10.8704
0
LINE
8
BLACK
6
CONTINUOUS
10
18.7296
20
10.8704
11
18.727
21
10.8556
0
LINE
8
BLACK
6
CONTINUOUS
10
18.727
20
10.8556
11
18.7274
21
10.8522
0
LINE
8
BLACK
6
CONTINUOUS
10
18.7274
20
10.8522
11
18.6798
21
10.6617
0
LINE
8
BLACK
6
CONTINUOUS
10
18.6798
20
10.6617
11
18.6745
21
10.6499
0
LINE
8
BLACK
6
CONTINUOUS
10
18.6745
20
10.6499
11
18.6741
21
10.6463
0
LINE
8
BLACK
6
CONTINUOUS
10
18.6741
20
10.6463
11
18.6265
21
10.5511
0
LINE
8
BLACK
6
CONTINUOUS
10
18.6265
20
10.5511
11
18.6131
21
10.5331
0
LINE
8
BLACK
6
CONTINUOUS
10
18.6131
20
10.5331
11
18.6124
21
10.5316
0
LINE
8
BLACK
6
CONTINUOUS
10
18.6124
20
10.5316
11
18.5172
21
10.4364
0
LINE
8
BLACK
6
CONTINUOUS
10
18.5172
20
10.4364
11
18.4958
21
10.4214
0
LINE
8
BLACK
6
CONTINUOUS
10
18.4958
20
10.4214
11
18.4914
21
10.421
0
LINE
8
BLACK
6
CONTINUOUS
10
18.4914
20
10.421
11
18.4879
21
10.4182
0
LINE
8
BLACK
6
CONTINUOUS
10
18.4879
20
10.4182
11
18.345
21
10.3706
0
LINE
8
BLACK
6
CONTINUOUS
10
18.345
20
10.3706
11
18.3228
21
10.3673
0
LINE
8
BLACK
6
CONTINUOUS
10
18.3228
20
10.3673
11
18.3213
21
10.3668
0
LINE
8
BLACK
6
CONTINUOUS
10
18.3213
20
10.3668
11
18.226
21
10.3668
0
LINE
8
BLACK
6
CONTINUOUS
10
18.226
20
10.3668
11
18.204
21
10.3707
0
LINE
8
BLACK
6
CONTINUOUS
10
18.204
20
10.3707
11
18.2023
21
10.3706
0
LINE
8
BLACK
6
CONTINUOUS
10
18.2023
20
10.3706
11
18.0595
21
10.4182
0
LINE
8
BLACK
6
CONTINUOUS
10
18.0595
20
10.4182
11
18.0366
21
10.4307
0
LINE
8
BLACK
6
CONTINUOUS
10
18.0366
20
10.4307
11
18.0342
21
10.4345
0
LINE
8
BLACK
6
CONTINUOUS
10
18.0342
20
10.4345
11
18.0302
21
10.4364
0
LINE
8
BLACK
6
CONTINUOUS
10
18.0302
20
10.4364
11
17.9825
21
10.484
0
LINE
8
BLACK
6
CONTINUOUS
10
17.9825
20
10.484
11
17.9676
21
10.5053
0
LINE
8
BLACK
6
CONTINUOUS
10
17.9676
20
10.5053
11
17.9631
21
10.5564
0
LINE
8
BLACK
6
CONTINUOUS
10
17.9631
20
10.5564
11
17.9925
21
10.5985
0
LINE
8
BLACK
6
CONTINUOUS
10
17.9925
20
10.5985
11
18.0421
21
10.6117
0
LINE
8
BLACK
6
CONTINUOUS
10
18.0421
20
10.6117
11
18.0886
21
10.5901
0
LINE
8
BLACK
6
CONTINUOUS
10
18.0886
20
10.5901
11
18.1237
21
10.555
0
LINE
8
BLACK
6
CONTINUOUS
10
18.1237
20
10.555
11
18.2382
21
10.5168
0
LINE
8
BLACK
6
CONTINUOUS
10
18.2382
20
10.5168
11
18.3091
21
10.5168
0
LINE
8
BLACK
6
CONTINUOUS
10
18.3091
20
10.5168
11
18.4236
21
10.555
0
LINE
8
BLACK
6
CONTINUOUS
10
18.4236
20
10.555
11
18.4977
21
10.6291
0
LINE
8
BLACK
6
CONTINUOUS
10
18.4977
20
10.6291
11
18.5362
21
10.7061
0
LINE
8
BLACK
6
CONTINUOUS
10
18.5362
20
10.7061
11
18.5796
21
10.8796
0
LINE
8
BLACK
6
CONTINUOUS
10
18.5796
20
10.8796
11
18.5796
21
11.004
0
LINE
8
BLACK
6
CONTINUOUS
10
18.5796
20
11.004
11
18.5362
21
11.1775
0
LINE
8
BLACK
6
CONTINUOUS
10
18.5362
20
11.1775
11
18.4977
21
11.2545
0
LINE
8
BLACK
6
CONTINUOUS
10
18.4977
20
11.2545
11
18.4236
21
11.3286
0
LINE
8
BLACK
6
CONTINUOUS
10
18.4236
20
11.3286
11
18.3091
21
11.3668
0
LINE
8
BLACK
6
CONTINUOUS
10
18.3091
20
11.3668
11
18.2382
21
11.3668
0
LINE
8
BLACK
6
CONTINUOUS
10
18.2382
20
11.3668
11
18.1237
21
11.3286
0
LINE
8
BLACK
6
CONTINUOUS
10
18.1237
20
11.3286
11
18.0886
21
11.2935
0
LINE
8
BLACK
6
CONTINUOUS
10
18.0886
20
11.2935
11
18.0673
21
11.2786
0
LINE
8
BLACK
6
CONTINUOUS
10
18.0673
20
11.2786
11
18.0162
21
11.2741
0
LINE
8
BLACK
6
CONTINUOUS
10
18.0162
20
11.2741
11
17.9741
21
11.3035
0
LINE
8
BLACK
6
CONTINUOUS
10
17.9741
20
11.3035
11
17.9609
21
11.3531
0
LINE
8
BLACK
6
CONTINUOUS
10
17.9609
20
11.3531
11
17.9825
21
11.3996
0
LINE
8
BLACK
6
CONTINUOUS
10
17.9825
20
11.3996
11
18.0302
21
11.4472
0
LINE
8
BLACK
6
CONTINUOUS
10
18.0302
20
11.4472
11
18.0515
21
11.4621
0
LINE
8
BLACK
6
CONTINUOUS
10
18.0515
20
11.4621
11
18.056
21
11.4625
0
LINE
8
BLACK
6
CONTINUOUS
10
18.056
20
11.4625
11
18.0595
21
11.4653
0
LINE
8
BLACK
6
CONTINUOUS
10
18.0595
20
11.4653
11
18.2023
21
11.5129
0
LINE
8
BLACK
6
CONTINUOUS
10
18.2023
20
11.5129
11
18.2245
21
11.5162
0
LINE
8
BLACK
6
CONTINUOUS
10
18.2245
20
11.5162
11
18.226
21
11.5168
0
LINE
8
BLACK
6
CONTINUOUS
10
18.226
20
11.5168
11
18.3213
21
11.5168
0
LINE
8
BLACK
6
CONTINUOUS
10
18.3213
20
11.5168
11
18.3434
21
11.5129
0
LINE
8
BLACK
6
CONTINUOUS
10
19.9623
20
10.6044
11
19.9798
21
10.562
0
LINE
8
BLACK
6
CONTINUOUS
10
19.9798
20
10.562
11
19.9623
21
10.5196
0
LINE
8
BLACK
6
CONTINUOUS
10
19.9623
20
10.5196
11
19.9198
21
10.502
0
LINE
8
BLACK
6
CONTINUOUS
10
19.9198
20
10.502
11
19.7042
21
10.502
0
LINE
8
BLACK
6
CONTINUOUS
10
19.7042
20
10.502
11
19.6617
21
10.5196
0
LINE
8
BLACK
6
CONTINUOUS
10
19.6617
20
10.5196
11
19.6442
21
10.562
0
LINE
8
BLACK
6
CONTINUOUS
10
19.6442
20
10.562
11
19.6617
21
10.6044
0
LINE
8
BLACK
6
CONTINUOUS
10
19.6617
20
10.6044
11
19.7042
21
10.622
0
LINE
8
BLACK
6
CONTINUOUS
10
19.7042
20
10.622
11
19.9198
21
10.622
0
LINE
8
BLACK
6
CONTINUOUS
10
19.9198
20
10.622
11
19.9623
21
10.6044
0
LINE
8
BLACK
6
CONTINUOUS
10
19.9623
20
11.3244
11
19.9798
21
11.282
0
LINE
8
BLACK
6
CONTINUOUS
10
19.9798
20
11.282
11
19.9623
21
11.2396
0
LINE
8
BLACK
6
CONTINUOUS
10
19.9623
20
11.2396
11
19.9198
21
11.222
0
LINE
8
BLACK
6
CONTINUOUS
10
19.9198
20
11.222
11
19.7042
21
11.222
0
LINE
8
BLACK
6
CONTINUOUS
10
19.7042
20
11.222
11
19.6617
21
11.2396
0
LINE
8
BLACK
6
CONTINUOUS
10
19.6617
20
11.2396
11
19.6442
21
11.282
0
LINE
8
BLACK
6
CONTINUOUS
10
19.6442
20
11.282
11
19.6617
21
11.3244
0
LINE
8
BLACK
6
CONTINUOUS
10
19.6617
20
11.3244
11
19.7042
21
11.342
0
LINE
8
BLACK
6
CONTINUOUS
10
19.7042
20
11.342
11
19.9198
21
11.342
0
LINE
8
BLACK
6
CONTINUOUS
10
19.9198
20
11.342
11
19.9623
21
11.3244
0
LINE
8
BLACK
6
CONTINUOUS
10
17.4898
20
12.7823
11
17.4932
21
12.7794
0
LINE
8
BLACK
6
CONTINUOUS
10
17.4932
20
12.7794
11
17.4977
21
12.7789
0
LINE
8
BLACK
6
CONTINUOUS
10
17.4977
20
12.7789
11
17.5929
21
12.7312
0
LINE
8
BLACK
6
CONTINUOUS
10
17.5929
20
12.7312
11
17.6109
21
12.7179
0
LINE
8
BLACK
6
CONTINUOUS
10
17.6109
20
12.7179
11
17.6124
21
12.7172
0
LINE
8
BLACK
6
CONTINUOUS
10
17.6124
20
12.7172
11
17.66
21
12.6696
0
LINE
8
BLACK
6
CONTINUOUS
10
17.66
20
12.6696
11
17.6729
21
12.6512
0
LINE
8
BLACK
6
CONTINUOUS
10
17.6729
20
12.6512
11
17.6741
21
12.6501
0
LINE
8
BLACK
6
CONTINUOUS
10
17.6741
20
12.6501
11
17.7217
21
12.5548
0
LINE
8
BLACK
6
CONTINUOUS
10
17.7217
20
12.5548
11
17.7291
21
12.5299
0
LINE
8
BLACK
6
CONTINUOUS
10
17.7291
20
12.5299
11
17.7281
21
12.5255
0
LINE
8
BLACK
6
CONTINUOUS
10
17.7281
20
12.5255
11
17.7296
21
12.5213
0
LINE
8
BLACK
6
CONTINUOUS
10
17.7296
20
12.5213
11
17.7296
21
12.4737
0
LINE
8
BLACK
6
CONTINUOUS
10
17.7296
20
12.4737
11
17.7251
21
12.448
0
LINE
8
BLACK
6
CONTINUOUS
10
17.7251
20
12.448
11
17.7222
21
12.4446
0
LINE
8
BLACK
6
CONTINUOUS
10
17.7222
20
12.4446
11
17.7217
21
12.4401
0
LINE
8
BLACK
6
CONTINUOUS
10
17.7217
20
12.4401
11
17.6741
21
12.3449
0
LINE
8
BLACK
6
CONTINUOUS
10
17.6741
20
12.3449
11
17.6607
21
12.3269
0
LINE
8
BLACK
6
CONTINUOUS
10
17.6607
20
12.3269
11
17.66
21
12.3254
0
LINE
8
BLACK
6
CONTINUOUS
10
17.66
20
12.3254
11
17.6178
21
12.2832
0
LINE
8
BLACK
6
CONTINUOUS
10
17.6178
20
12.2832
11
17.66
21
12.241
0
LINE
8
BLACK
6
CONTINUOUS
10
17.66
20
12.241
11
17.6729
21
12.2226
0
LINE
8
BLACK
6
CONTINUOUS
10
17.6729
20
12.2226
11
17.6741
21
12.2215
0
LINE
8
BLACK
6
CONTINUOUS
10
17.6741
20
12.2215
11
17.7217
21
12.1263
0
LINE
8
BLACK
6
CONTINUOUS
10
17.7217
20
12.1263
11
17.7291
21
12.1013
0
LINE
8
BLACK
6
CONTINUOUS
10
17.7291
20
12.1013
11
17.7281
21
12.0969
0
LINE
8
BLACK
6
CONTINUOUS
10
17.7281
20
12.0969
11
17.7296
21
12.0927
0
LINE
8
BLACK
6
CONTINUOUS
10
17.7296
20
12.0927
11
17.7296
21
11.9023
0
LINE
8
BLACK
6
CONTINUOUS
10
17.7296
20
11.9023
11
17.7251
21
11.8766
0
LINE
8
BLACK
6
CONTINUOUS
10
17.7251
20
11.8766
11
17.7222
21
11.8732
0
LINE
8
BLACK
6
CONTINUOUS
10
17.7222
20
11.8732
11
17.7217
21
11.8687
0
LINE
8
BLACK
6
CONTINUOUS
10
17.7217
20
11.8687
11
17.6741
21
11.7735
0
LINE
8
BLACK
6
CONTINUOUS
10
17.6741
20
11.7735
11
17.6607
21
11.7555
0
LINE
8
BLACK
6
CONTINUOUS
10
17.6607
20
11.7555
11
17.66
21
11.754
0
LINE
8
BLACK
6
CONTINUOUS
10
17.66
20
11.754
11
17.6124
21
11.7064
0
LINE
8
BLACK
6
CONTINUOUS
10
17.6124
20
11.7064
11
17.594
21
11.6935
0
LINE
8
BLACK
6
CONTINUOUS
10
17.594
20
11.6935
11
17.5929
21
11.6923
0
LINE
8
BLACK
6
CONTINUOUS
10
17.5929
20
11.6923
11
17.4977
21
11.6447
0
LINE
8
BLACK
6
CONTINUOUS
10
17.4977
20
11.6447
11
17.4727
21
11.6373
0
LINE
8
BLACK
6
CONTINUOUS
10
17.4727
20
11.6373
11
17.4684
21
11.6383
0
LINE
8
BLACK
6
CONTINUOUS
10
17.4684
20
11.6383
11
17.4641
21
11.6368
0
LINE
8
BLACK
6
CONTINUOUS
10
17.4641
20
11.6368
11
17.2737
21
11.6368
0
LINE
8
BLACK
6
CONTINUOUS
10
17.2737
20
11.6368
11
17.248
21
11.6413
0
LINE
8
BLACK
6
CONTINUOUS
10
17.248
20
11.6413
11
17.2446
21
11.6442
0
LINE
8
BLACK
6
CONTINUOUS
10
17.2446
20
11.6442
11
17.2401
21
11.6447
0
LINE
8
BLACK
6
CONTINUOUS
10
17.2401
20
11.6447
11
17.1449
21
11.6923
0
LINE
8
BLACK
6
CONTINUOUS
10
17.1449
20
11.6923
11
17.1269
21
11.7057
0
LINE
8
BLACK
6
CONTINUOUS
10
17.1269
20
11.7057
11
17.1254
21
11.7064
0
LINE
8
BLACK
6
CONTINUOUS
10
17.1254
20
11.7064
11
17.0778
21
11.754
0
LINE
8
BLACK
6
CONTINUOUS
10
17.0778
20
11.754
11
17.0649
21
11.7724
0
LINE
8
BLACK
6
CONTINUOUS
10
17.0649
20
11.7724
11
17.0637
21
11.7735
0
LINE
8
BLACK
6
CONTINUOUS
10
17.0637
20
11.7735
11
17.0161
21
11.8687
0
LINE
8
BLACK
6
CONTINUOUS
10
17.0161
20
11.8687
11
17.0087
21
11.8937
0
LINE
8
BLACK
6
CONTINUOUS
10
17.0087
20
11.8937
11
17.0097
21
11.898
0
LINE
8
BLACK
6
CONTINUOUS
10
17.0097
20
11.898
11
17.0082
21
11.9023
0
LINE
8
BLACK
6
CONTINUOUS
10
17.0082
20
11.9023
11
17.0082
21
12.0927
0
LINE
8
BLACK
6
CONTINUOUS
10
17.0082
20
12.0927
11
17.0127
21
12.1184
0
LINE
8
BLACK
6
CONTINUOUS
10
17.0127
20
12.1184
11
17.0156
21
12.1218
0
LINE
8
BLACK
6
CONTINUOUS
10
17.0156
20
12.1218
11
17.0161
21
12.1263
0
LINE
8
BLACK
6
CONTINUOUS
10
17.0161
20
12.1263
11
17.0637
21
12.2215
0
LINE
8
BLACK
6
CONTINUOUS
10
17.0637
20
12.2215
11
17.0771
21
12.2395
0
LINE
8
BLACK
6
CONTINUOUS
10
17.0771
20
12.2395
11
17.0778
21
12.241
0
LINE
8
BLACK
6
CONTINUOUS
10
17.0778
20
12.241
11
17.12
21
12.2832
0
LINE
8
BLACK
6
CONTINUOUS
10
17.12
20
12.2832
11
17.0778
21
12.3254
0
LINE
8
BLACK
6
CONTINUOUS
10
17.0778
20
12.3254
11
17.0649
21
12.3438
0
LINE
8
BLACK
6
CONTINUOUS
10
17.0649
20
12.3438
11
17.0637
21
12.3449
0
LINE
8
BLACK
6
CONTINUOUS
10
17.0637
20
12.3449
11
17.0161
21
12.4401
0
LINE
8
BLACK
6
CONTINUOUS
10
17.0161
20
12.4401
11
17.0087
21
12.4651
0
LINE
8
BLACK
6
CONTINUOUS
10
17.0087
20
12.4651
11
17.0097
21
12.4695
0
LINE
8
BLACK
6
CONTINUOUS
10
17.0097
20
12.4695
11
17.0082
21
12.4737
0
LINE
8
BLACK
6
CONTINUOUS
10
17.0082
20
12.4737
11
17.0082
21
12.5213
0
LINE
8
BLACK
6
CONTINUOUS
10
17.0082
20
12.5213
11
17.0127
21
12.547
0
LINE
8
BLACK
6
CONTINUOUS
10
17.0127
20
12.547
11
17.0156
21
12.5504
0
LINE
8
BLACK
6
CONTINUOUS
10
17.0156
20
12.5504
11
17.0161
21
12.5548
0
LINE
8
BLACK
6
CONTINUOUS
10
17.0161
20
12.5548
11
17.0637
21
12.6501
0
LINE
8
BLACK
6
CONTINUOUS
10
17.0637
20
12.6501
11
17.0771
21
12.6681
0
LINE
8
BLACK
6
CONTINUOUS
10
17.0771
20
12.6681
11
17.0778
21
12.6696
0
LINE
8
BLACK
6
CONTINUOUS
10
17.0778
20
12.6696
11
17.1254
21
12.7172
0
LINE
8
BLACK
6
CONTINUOUS
10
17.1254
20
12.7172
11
17.1438
21
12.7301
0
LINE
8
BLACK
6
CONTINUOUS
10
17.1438
20
12.7301
11
17.1449
21
12.7312
0
LINE
8
BLACK
6
CONTINUOUS
10
17.1449
20
12.7312
11
17.2401
21
12.7789
0
LINE
8
BLACK
6
CONTINUOUS
10
17.2401
20
12.7789
11
17.2651
21
12.7863
0
LINE
8
BLACK
6
CONTINUOUS
10
17.2651
20
12.7863
11
17.2694
21
12.7852
0
LINE
8
BLACK
6
CONTINUOUS
10
17.2694
20
12.7852
11
17.2737
21
12.7868
0
LINE
8
BLACK
6
CONTINUOUS
10
17.2737
20
12.7868
11
17.4641
21
12.7868
0
LINE
8
BLACK
6
CONTINUOUS
10
17.4641
20
12.7868
11
17.4898
21
12.7823
0
LINE
8
BLACK
6
CONTINUOUS
10
17.2228
20
12.174
11
17.1924
21
12.1435
0
LINE
8
BLACK
6
CONTINUOUS
10
17.1924
20
12.1435
11
17.1582
21
12.075
0
LINE
8
BLACK
6
CONTINUOUS
10
17.1582
20
12.075
11
17.1582
21
11.92
0
LINE
8
BLACK
6
CONTINUOUS
10
17.1582
20
11.92
11
17.1924
21
11.8514
0
LINE
8
BLACK
6
CONTINUOUS
10
17.1924
20
11.8514
11
17.2228
21
11.821
0
LINE
8
BLACK
6
CONTINUOUS
10
17.2228
20
11.821
11
17.2914
21
11.7868
0
LINE
8
BLACK
6
CONTINUOUS
10
17.2914
20
11.7868
11
17.4464
21
11.7868
0
LINE
8
BLACK
6
CONTINUOUS
10
17.4464
20
11.7868
11
17.5149
21
11.821
0
LINE
8
BLACK
6
CONTINUOUS
10
17.5149
20
11.821
11
17.5454
21
11.8514
0
LINE
8
BLACK
6
CONTINUOUS
10
17.5454
20
11.8514
11
17.5796
21
11.92
0
LINE
8
BLACK
6
CONTINUOUS
10
17.5796
20
11.92
11
17.5796
21
12.075
0
LINE
8
BLACK
6
CONTINUOUS
10
17.5796
20
12.075
11
17.5454
21
12.1435
0
LINE
8
BLACK
6
CONTINUOUS
10
17.5454
20
12.1435
11
17.5149
21
12.174
0
LINE
8
BLACK
6
CONTINUOUS
10
17.5149
20
12.174
11
17.4464
21
12.2082
0
LINE
8
BLACK
6
CONTINUOUS
10
17.4464
20
12.2082
11
17.2914
21
12.2082
0
LINE
8
BLACK
6
CONTINUOUS
10
17.2914
20
12.2082
11
17.2228
21
12.174
0
LINE
8
BLACK
6
CONTINUOUS
10
17.2228
20
12.6025
11
17.1924
21
12.5721
0
LINE
8
BLACK
6
CONTINUOUS
10
17.1924
20
12.5721
11
17.1582
21
12.5036
0
LINE
8
BLACK
6
CONTINUOUS
10
17.1582
20
12.5036
11
17.1582
21
12.4914
0
LINE
8
BLACK
6
CONTINUOUS
10
17.1582
20
12.4914
11
17.1924
21
12.4229
0
LINE
8
BLACK
6
CONTINUOUS
10
17.1924
20
12.4229
11
17.2228
21
12.3925
0
LINE
8
BLACK
6
CONTINUOUS
10
17.2228
20
12.3925
11
17.2914
21
12.3582
0
LINE
8
BLACK
6
CONTINUOUS
10
17.2914
20
12.3582
11
17.4464
21
12.3582
0
LINE
8
BLACK
6
CONTINUOUS
10
17.4464
20
12.3582
11
17.5149
21
12.3925
0
LINE
8
BLACK
6
CONTINUOUS
10
17.5149
20
12.3925
11
17.5454
21
12.4229
0
LINE
8
BLACK
6
CONTINUOUS
10
17.5454
20
12.4229
11
17.5796
21
12.4914
0
LINE
8
BLACK
6
CONTINUOUS
10
17.5796
20
12.4914
11
17.5796
21
12.5036
0
LINE
8
BLACK
6
CONTINUOUS
10
17.5796
20
12.5036
11
17.5454
21
12.5721
0
LINE
8
BLACK
6
CONTINUOUS
10
17.5454
20
12.5721
11
17.5149
21
12.6025
0
LINE
8
BLACK
6
CONTINUOUS
10
17.5149
20
12.6025
11
17.4464
21
12.6368
0
LINE
8
BLACK
6
CONTINUOUS
10
17.4464
20
12.6368
11
17.2914
21
12.6368
0
LINE
8
BLACK
6
CONTINUOUS
10
17.2914
20
12.6368
11
17.2228
21
12.6025
0
LINE
8
BLACK
6
CONTINUOUS
10
18.3434
20
12.7829
11
18.345
21
12.7829
0
LINE
8
BLACK
6
CONTINUOUS
10
18.345
20
12.7829
11
18.4879
21
12.7353
0
LINE
8
BLACK
6
CONTINUOUS
10
18.4879
20
12.7353
11
18.5108
21
12.7229
0
LINE
8
BLACK
6
CONTINUOUS
10
18.5108
20
12.7229
11
18.5131
21
12.7191
0
LINE
8
BLACK
6
CONTINUOUS
10
18.5131
20
12.7191
11
18.5172
21
12.7172
0
LINE
8
BLACK
6
CONTINUOUS
10
18.5172
20
12.7172
11
18.6124
21
12.622
0
LINE
8
BLACK
6
CONTINUOUS
10
18.6124
20
12.622
11
18.6253
21
12.6036
0
LINE
8
BLACK
6
CONTINUOUS
10
18.6253
20
12.6036
11
18.6265
21
12.6025
0
LINE
8
BLACK
6
CONTINUOUS
10
18.6265
20
12.6025
11
18.6741
21
12.5072
0
LINE
8
BLACK
6
CONTINUOUS
10
18.6741
20
12.5072
11
18.6778
21
12.4948
0
LINE
8
BLACK
6
CONTINUOUS
10
18.6778
20
12.4948
11
18.6798
21
12.4919
0
LINE
8
BLACK
6
CONTINUOUS
10
18.6798
20
12.4919
11
18.7274
21
12.3014
0
LINE
8
BLACK
6
CONTINUOUS
10
18.7274
20
12.3014
11
18.7284
21
12.2865
0
LINE
8
BLACK
6
CONTINUOUS
10
18.7284
20
12.2865
11
18.7296
21
12.2832
0
LINE
8
BLACK
6
CONTINUOUS
10
18.7296
20
12.2832
11
18.7296
21
12.1404
0
LINE
8
BLACK
6
CONTINUOUS
10
18.7296
20
12.1404
11
18.727
21
12.1256
0
LINE
8
BLACK
6
CONTINUOUS
10
18.727
20
12.1256
11
18.7274
21
12.1222
0
LINE
8
BLACK
6
CONTINUOUS
10
18.7274
20
12.1222
11
18.6798
21
11.9317
0
LINE
8
BLACK
6
CONTINUOUS
10
18.6798
20
11.9317
11
18.6745
21
11.9199
0
LINE
8
BLACK
6
CONTINUOUS
10
18.6745
20
11.9199
11
18.6741
21
11.9163
0
LINE
8
BLACK
6
CONTINUOUS
10
18.6741
20
11.9163
11
18.6265
21
11.8211
0
LINE
8
BLACK
6
CONTINUOUS
10
18.6265
20
11.8211
11
18.6131
21
11.8031
0
LINE
8
BLACK
6
CONTINUOUS
10
18.6131
20
11.8031
11
18.6124
21
11.8016
0
LINE
8
BLACK
6
CONTINUOUS
10
18.6124
20
11.8016
11
18.5172
21
11.7064
0
LINE
8
BLACK
6
CONTINUOUS
10
18.5172
20
11.7064
11
18.4958
21
11.6914
0
LINE
8
BLACK
6
CONTINUOUS
10
18.4958
20
11.6914
11
18.4914
21
11.691
0
LINE
8
BLACK
6
CONTINUOUS
10
18.4914
20
11.691
11
18.4879
21
11.6882
0
LINE
8
BLACK
6
CONTINUOUS
10
18.4879
20
11.6882
11
18.345
21
11.6406
0
LINE
8
BLACK
6
CONTINUOUS
10
18.345
20
11.6406
11
18.3228
21
11.6373
0
LINE
8
BLACK
6
CONTINUOUS
10
18.3228
20
11.6373
11
18.3213
21
11.6368
0
LINE
8
BLACK
6
CONTINUOUS
10
18.3213
20
11.6368
11
18.226
21
11.6368
0
LINE
8
BLACK
6
CONTINUOUS
10
18.226
20
11.6368
11
18.204
21
11.6407
0
LINE
8
BLACK
6
CONTINUOUS
10
18.204
20
11.6407
11
18.2023
21
11.6406
0
LINE
8
BLACK
6
CONTINUOUS
10
18.2023
20
11.6406
11
18.0595
21
11.6882
0
LINE
8
BLACK
6
CONTINUOUS
10
18.0595
20
11.6882
11
18.0366
21
11.7007
0
LINE
8
BLACK
6
CONTINUOUS
10
18.0366
20
11.7007
11
18.0342
21
11.7045
0
LINE
8
BLACK
6
CONTINUOUS
10
18.0342
20
11.7045
11
18.0302
21
11.7064
0
LINE
8
BLACK
6
CONTINUOUS
10
18.0302
20
11.7064
11
17.9825
21
11.754
0
LINE
8
BLACK
6
CONTINUOUS
10
17.9825
20
11.754
11
17.9676
21
11.7753
0
LINE
8
BLACK
6
CONTINUOUS
10
17.9676
20
11.7753
11
17.9631
21
11.8264
0
LINE
8
BLACK
6
CONTINUOUS
10
17.9631
20
11.8264
11
17.9925
21
11.8685
0
LINE
8
BLACK
6
CONTINUOUS
10
17.9925
20
11.8685
11
18.0421
21
11.8817
0
LINE
8
BLACK
6
CONTINUOUS
10
18.0421
20
11.8817
11
18.0886
21
11.8601
0
LINE
8
BLACK
6
CONTINUOUS
10
18.0886
20
11.8601
11
18.1237
21
11.825
0
LINE
8
BLACK
6
CONTINUOUS
10
18.1237
20
11.825
11
18.2382
21
11.7868
0
LINE
8
BLACK
6
CONTINUOUS
10
18.2382
20
11.7868
11
18.3091
21
11.7868
0
LINE
8
BLACK
6
CONTINUOUS
10
18.3091
20
11.7868
11
18.4236
21
11.825
0
LINE
8
BLACK
6
CONTINUOUS
10
18.4236
20
11.825
11
18.4977
21
11.8991
0
LINE
8
BLACK
6
CONTINUOUS
10
18.4977
20
11.8991
11
18.5362
21
11.9761
0
LINE
8
BLACK
6
CONTINUOUS
10
18.5362
20
11.9761
11
18.5796
21
12.1496
0
LINE
8
BLACK
6
CONTINUOUS
10
18.5796
20
12.1496
11
18.5796
21
12.274
0
LINE
8
BLACK
6
CONTINUOUS
10
18.5796
20
12.274
11
18.5362
21
12.4475
0
LINE
8
BLACK
6
CONTINUOUS
10
18.5362
20
12.4475
11
18.4977
21
12.5245
0
LINE
8
BLACK
6
CONTINUOUS
10
18.4977
20
12.5245
11
18.4236
21
12.5986
0
LINE
8
BLACK
6
CONTINUOUS
10
18.4236
20
12.5986
11
18.3091
21
12.6368
0
LINE
8
BLACK
6
CONTINUOUS
10
18.3091
20
12.6368
11
18.2382
21
12.6368
0
LINE
8
BLACK
6
CONTINUOUS
10
18.2382
20
12.6368
11
18.1237
21
12.5986
0
LINE
8
BLACK
6
CONTINUOUS
10
18.1237
20
12.5986
11
18.0886
21
12.5635
0
LINE
8
BLACK
6
CONTINUOUS
10
18.0886
20
12.5635
11
18.0673
21
12.5486
0
LINE
8
BLACK
6
CONTINUOUS
10
18.0673
20
12.5486
11
18.0162
21
12.5441
0
LINE
8
BLACK
6
CONTINUOUS
10
18.0162
20
12.5441
11
17.9741
21
12.5735
0
LINE
8
BLACK
6
CONTINUOUS
10
17.9741
20
12.5735
11
17.9609
21
12.6231
0
LINE
8
BLACK
6
CONTINUOUS
10
17.9609
20
12.6231
11
17.9825
21
12.6696
0
LINE
8
BLACK
6
CONTINUOUS
10
17.9825
20
12.6696
11
18.0302
21
12.7172
0
LINE
8
BLACK
6
CONTINUOUS
10
18.0302
20
12.7172
11
18.0515
21
12.7321
0
LINE
8
BLACK
6
CONTINUOUS
10
18.0515
20
12.7321
11
18.056
21
12.7325
0
LINE
8
BLACK
6
CONTINUOUS
10
18.056
20
12.7325
11
18.0595
21
12.7353
0
LINE
8
BLACK
6
CONTINUOUS
10
18.0595
20
12.7353
11
18.2023
21
12.7829
0
LINE
8
BLACK
6
CONTINUOUS
10
18.2023
20
12.7829
11
18.2245
21
12.7862
0
LINE
8
BLACK
6
CONTINUOUS
10
18.2245
20
12.7862
11
18.226
21
12.7868
0
LINE
8
BLACK
6
CONTINUOUS
10
18.226
20
12.7868
11
18.3213
21
12.7868
0
LINE
8
BLACK
6
CONTINUOUS
10
18.3213
20
12.7868
11
18.3434
21
12.7829
0
LINE
8
BLACK
6
CONTINUOUS
10
29.2532
20
12.7823
11
29.2567
21
12.7794
0
LINE
8
BLACK
6
CONTINUOUS
10
29.2567
20
12.7794
11
29.2611
21
12.7789
0
LINE
8
BLACK
6
CONTINUOUS
10
29.2611
20
12.7789
11
29.3563
21
12.7312
0
LINE
8
BLACK
6
CONTINUOUS
10
29.3563
20
12.7312
11
29.3744
21
12.7179
0
LINE
8
BLACK
6
CONTINUOUS
10
29.3744
20
12.7179
11
29.3758
21
12.7172
0
LINE
8
BLACK
6
CONTINUOUS
10
29.3758
20
12.7172
11
29.4235
21
12.6696
0
LINE
8
BLACK
6
CONTINUOUS
10
29.4235
20
12.6696
11
29.4384
21
12.6482
0
LINE
8
BLACK
6
CONTINUOUS
10
29.4384
20
12.6482
11
29.4429
21
12.5971
0
LINE
8
BLACK
6
CONTINUOUS
10
29.4429
20
12.5971
11
29.4134
21
12.5551
0
LINE
8
BLACK
6
CONTINUOUS
10
29.4134
20
12.5551
11
29.3639
21
12.5418
0
LINE
8
BLACK
6
CONTINUOUS
10
29.3639
20
12.5418
11
29.3174
21
12.5635
0
LINE
8
BLACK
6
CONTINUOUS
10
29.3174
20
12.5635
11
29.2784
21
12.6025
0
LINE
8
BLACK
6
CONTINUOUS
10
29.2784
20
12.6025
11
29.2099
21
12.6368
0
LINE
8
BLACK
6
CONTINUOUS
10
29.2099
20
12.6368
11
29.0072
21
12.6368
0
LINE
8
BLACK
6
CONTINUOUS
10
29.0072
20
12.6368
11
28.9387
21
12.6025
0
LINE
8
BLACK
6
CONTINUOUS
10
28.9387
20
12.6025
11
28.9083
21
12.5721
0
LINE
8
BLACK
6
CONTINUOUS
10
28.9083
20
12.5721
11
28.874
21
12.5036
0
LINE
8
BLACK
6
CONTINUOUS
10
28.874
20
12.5036
11
28.874
21
12.4382
0
LINE
8
BLACK
6
CONTINUOUS
10
28.874
20
12.4382
11
28.9122
21
12.3237
0
LINE
8
BLACK
6
CONTINUOUS
10
28.9122
20
12.3237
11
29.4711
21
11.7648
0
LINE
8
BLACK
6
CONTINUOUS
10
29.4711
20
11.7648
11
29.4805
21
11.7514
0
LINE
8
BLACK
6
CONTINUOUS
10
29.4805
20
11.7514
11
29.483
21
11.7493
0
LINE
8
BLACK
6
CONTINUOUS
10
29.483
20
11.7493
11
29.4833
21
11.7473
0
LINE
8
BLACK
6
CONTINUOUS
10
29.4833
20
11.7473
11
29.486
21
11.7435
0
LINE
8
BLACK
6
CONTINUOUS
10
29.486
20
11.7435
11
29.488
21
11.721
0
LINE
8
BLACK
6
CONTINUOUS
10
29.488
20
11.721
11
29.4919
21
11.6988
0
LINE
8
BLACK
6
CONTINUOUS
10
29.4919
20
11.6988
11
29.4902
21
11.6958
0
LINE
8
BLACK
6
CONTINUOUS
10
29.4902
20
11.6958
11
29.4905
21
11.6924
0
LINE
8
BLACK
6
CONTINUOUS
10
29.4905
20
11.6924
11
29.4775
21
11.6739
0
LINE
8
BLACK
6
CONTINUOUS
10
29.4775
20
11.6739
11
29.4663
21
11.6543
0
LINE
8
BLACK
6
CONTINUOUS
10
29.4663
20
11.6543
11
29.463
21
11.6532
0
LINE
8
BLACK
6
CONTINUOUS
10
29.463
20
11.6532
11
29.4611
21
11.6503
0
LINE
8
BLACK
6
CONTINUOUS
10
29.4611
20
11.6503
11
29.4393
21
11.6445
0
LINE
8
BLACK
6
CONTINUOUS
10
29.4393
20
11.6445
11
29.418
21
11.6368
0
LINE
8
BLACK
6
CONTINUOUS
10
29.418
20
11.6368
11
28.799
21
11.6368
0
LINE
8
BLACK
6
CONTINUOUS
10
28.799
20
11.6368
11
28.7733
21
11.6413
0
LINE
8
BLACK
6
CONTINUOUS
10
28.7733
20
11.6413
11
28.734
21
11.6743
0
LINE
8
BLACK
6
CONTINUOUS
10
28.734
20
11.6743
11
28.7251
21
11.7248
0
LINE
8
BLACK
6
CONTINUOUS
10
28.7251
20
11.7248
11
28.7508
21
11.7692
0
LINE
8
BLACK
6
CONTINUOUS
10
28.7508
20
11.7692
11
28.799
21
11.7868
0
LINE
8
BLACK
6
CONTINUOUS
10
28.799
20
11.7868
11
29.237
21
11.7868
0
LINE
8
BLACK
6
CONTINUOUS
10
29.237
20
11.7868
11
28.7936
21
12.2302
0
LINE
8
BLACK
6
CONTINUOUS
10
28.7936
20
12.2302
11
28.7786
21
12.2515
0
LINE
8
BLACK
6
CONTINUOUS
10
28.7786
20
12.2515
11
28.7782
21
12.256
0
LINE
8
BLACK
6
CONTINUOUS
10
28.7782
20
12.256
11
28.7755
21
12.2595
0
LINE
8
BLACK
6
CONTINUOUS
10
28.7755
20
12.2595
11
28.7278
21
12.4024
0
LINE
8
BLACK
6
CONTINUOUS
10
28.7278
20
12.4024
11
28.7246
21
12.4245
0
LINE
8
BLACK
6
CONTINUOUS
10
28.7246
20
12.4245
11
28.724
21
12.4261
0
LINE
8
BLACK
6
CONTINUOUS
10
28.724
20
12.4261
11
28.724
21
12.5213
0
LINE
8
BLACK
6
CONTINUOUS
10
28.724
20
12.5213
11
28.7285
21
12.547
0
LINE
8
BLACK
6
CONTINUOUS
10
28.7285
20
12.547
11
28.7314
21
12.5504
0
LINE
8
BLACK
6
CONTINUOUS
10
28.7314
20
12.5504
11
28.7319
21
12.5548
0
LINE
8
BLACK
6
CONTINUOUS
10
28.7319
20
12.5548
11
28.7795
21
12.6501
0
LINE
8
BLACK
6
CONTINUOUS
10
28.7795
20
12.6501
11
28.7929
21
12.6681
0
LINE
8
BLACK
6
CONTINUOUS
10
28.7929
20
12.6681
11
28.7936
21
12.6696
0
LINE
8
BLACK
6
CONTINUOUS
10
28.7936
20
12.6696
11
28.8412
21
12.7172
0
LINE
8
BLACK
6
CONTINUOUS
10
28.8412
20
12.7172
11
28.8596
21
12.7301
0
LINE
8
BLACK
6
CONTINUOUS
10
28.8596
20
12.7301
11
28.8607
21
12.7312
0
LINE
8
BLACK
6
CONTINUOUS
10
28.8607
20
12.7312
11
28.9559
21
12.7789
0
LINE
8
BLACK
6
CONTINUOUS
10
28.9559
20
12.7789
11
28.9809
21
12.7863
0
LINE
8
BLACK
6
CONTINUOUS
10
28.9809
20
12.7863
11
28.9853
21
12.7852
0
LINE
8
BLACK
6
CONTINUOUS
10
28.9853
20
12.7852
11
28.9895
21
12.7868
0
LINE
8
BLACK
6
CONTINUOUS
10
28.9895
20
12.7868
11
29.2276
21
12.7868
0
LINE
8
BLACK
6
CONTINUOUS
10
29.2276
20
12.7868
11
29.2532
21
12.7823
0
LINE
8
BLACK
6
CONTINUOUS
10
30.0538
20
12.7835
11
30.0582
21
12.7838
0
LINE
8
BLACK
6
CONTINUOUS
10
30.0582
20
12.7838
11
30.0757
21
12.7709
0
LINE
8
BLACK
6
CONTINUOUS
10
30.0757
20
12.7709
11
30.0945
21
12.76
0
LINE
8
BLACK
6
CONTINUOUS
10
30.0945
20
12.76
11
30.096
21
12.7559
0
LINE
8
BLACK
6
CONTINUOUS
10
30.096
20
12.7559
11
30.0995
21
12.7534
0
LINE
8
BLACK
6
CONTINUOUS
10
30.0995
20
12.7534
11
30.1906
21
12.6167
0
LINE
8
BLACK
6
CONTINUOUS
10
30.1906
20
12.6167
11
30.272
21
12.5353
0
LINE
8
BLACK
6
CONTINUOUS
10
30.272
20
12.5353
11
30.3563
21
12.4931
0
LINE
8
BLACK
6
CONTINUOUS
10
30.3563
20
12.4931
11
30.3773
21
12.4776
0
LINE
8
BLACK
6
CONTINUOUS
10
30.3773
20
12.4776
11
30.3977
21
12.4306
0
LINE
8
BLACK
6
CONTINUOUS
10
30.3977
20
12.4306
11
30.383
21
12.3814
0
LINE
8
BLACK
6
CONTINUOUS
10
30.383
20
12.3814
11
30.3402
21
12.3531
0
LINE
8
BLACK
6
CONTINUOUS
10
30.3402
20
12.3531
11
30.2893
21
12.359
0
LINE
8
BLACK
6
CONTINUOUS
10
30.2893
20
12.359
11
30.194
21
12.4066
0
LINE
8
BLACK
6
CONTINUOUS
10
30.194
20
12.4066
11
30.176
21
12.42
0
LINE
8
BLACK
6
CONTINUOUS
10
30.176
20
12.42
11
30.1745
21
12.4207
0
LINE
8
BLACK
6
CONTINUOUS
10
30.1745
20
12.4207
11
30.1121
21
12.4831
0
LINE
8
BLACK
6
CONTINUOUS
10
30.1121
20
12.4831
11
30.1121
21
11.7868
0
LINE
8
BLACK
6
CONTINUOUS
10
30.1121
20
11.7868
11
30.3228
21
11.7868
0
LINE
8
BLACK
6
CONTINUOUS
10
30.3228
20
11.7868
11
30.3485
21
11.7823
0
LINE
8
BLACK
6
CONTINUOUS
10
30.3485
20
11.7823
11
30.3878
21
11.7493
0
LINE
8
BLACK
6
CONTINUOUS
10
30.3878
20
11.7493
11
30.3967
21
11.6988
0
LINE
8
BLACK
6
CONTINUOUS
10
30.3967
20
11.6988
11
30.371
21
11.6543
0
LINE
8
BLACK
6
CONTINUOUS
10
30.371
20
11.6543
11
30.3228
21
11.6368
0
LINE
8
BLACK
6
CONTINUOUS
10
30.3228
20
11.6368
11
29.7514
21
11.6368
0
LINE
8
BLACK
6
CONTINUOUS
10
29.7514
20
11.6368
11
29.7257
21
11.6413
0
LINE
8
BLACK
6
CONTINUOUS
10
29.7257
20
11.6413
11
29.6864
21
11.6743
0
LINE
8
BLACK
6
CONTINUOUS
10
29.6864
20
11.6743
11
29.6775
21
11.7248
0
LINE
8
BLACK
6
CONTINUOUS
10
29.6775
20
11.7248
11
29.7032
21
11.7692
0
LINE
8
BLACK
6
CONTINUOUS
10
29.7032
20
11.7692
11
29.7514
21
11.7868
0
LINE
8
BLACK
6
CONTINUOUS
10
29.7514
20
11.7868
11
29.9621
21
11.7868
0
LINE
8
BLACK
6
CONTINUOUS
10
29.9621
20
11.7868
11
29.9621
21
12.7118
0
LINE
8
BLACK
6
CONTINUOUS
10
29.9621
20
12.7118
11
29.9666
21
12.7374
0
LINE
8
BLACK
6
CONTINUOUS
10
29.9666
20
12.7374
11
29.9694
21
12.7407
0
LINE
8
BLACK
6
CONTINUOUS
10
29.9694
20
12.7407
11
29.9699
21
12.745
0
LINE
8
BLACK
6
CONTINUOUS
10
29.9699
20
12.745
11
29.9856
21
12.7601
0
LINE
8
BLACK
6
CONTINUOUS
10
29.9856
20
12.7601
11
29.9996
21
12.7767
0
LINE
8
BLACK
6
CONTINUOUS
10
29.9996
20
12.7767
11
30.0038
21
12.7775
0
LINE
8
BLACK
6
CONTINUOUS
10
30.0038
20
12.7775
11
30.007
21
12.7805
0
LINE
8
BLACK
6
CONTINUOUS
10
30.007
20
12.7805
11
30.0287
21
12.7819
0
LINE
8
BLACK
6
CONTINUOUS
10
30.0287
20
12.7819
11
30.0501
21
12.7856
0
LINE
8
BLACK
6
CONTINUOUS
10
30.0501
20
12.7856
11
30.0538
21
12.7835
0
LINE
8
BLACK
6
CONTINUOUS
10
31.0116
20
12.7829
11
31.0132
21
12.7829
0
LINE
8
BLACK
6
CONTINUOUS
10
31.0132
20
12.7829
11
31.156
21
12.7353
0
LINE
8
BLACK
6
CONTINUOUS
10
31.156
20
12.7353
11
31.1789
21
12.7229
0
LINE
8
BLACK
6
CONTINUOUS
10
31.1789
20
12.7229
11
31.1813
21
12.7191
0
LINE
8
BLACK
6
CONTINUOUS
10
31.1813
20
12.7191
11
31.1854
21
12.7172
0
LINE
8
BLACK
6
CONTINUOUS
10
31.1854
20
12.7172
11
31.2806
21
12.622
0
LINE
8
BLACK
6
CONTINUOUS
10
31.2806
20
12.622
11
31.2935
21
12.6036
0
LINE
8
BLACK
6
CONTINUOUS
10
31.2935
20
12.6036
11
31.2946
21
12.6025
0
LINE
8
BLACK
6
CONTINUOUS
10
31.2946
20
12.6025
11
31.3423
21
12.5072
0
LINE
8
BLACK
6
CONTINUOUS
10
31.3423
20
12.5072
11
31.346
21
12.4948
0
LINE
8
BLACK
6
CONTINUOUS
10
31.346
20
12.4948
11
31.3479
21
12.4919
0
LINE
8
BLACK
6
CONTINUOUS
10
31.3479
20
12.4919
11
31.3956
21
12.3014
0
LINE
8
BLACK
6
CONTINUOUS
10
31.3956
20
12.3014
11
31.3966
21
12.2865
0
LINE
8
BLACK
6
CONTINUOUS
10
31.3966
20
12.2865
11
31.3978
21
12.2832
0
LINE
8
BLACK
6
CONTINUOUS
10
31.3978
20
12.2832
11
31.3978
21
12.1404
0
LINE
8
BLACK
6
CONTINUOUS
10
31.3978
20
12.1404
11
31.3952
21
12.1256
0
LINE
8
BLACK
6
CONTINUOUS
10
31.3952
20
12.1256
11
31.3956
21
12.1222
0
LINE
8
BLACK
6
CONTINUOUS
10
31.3956
20
12.1222
11
31.3479
21
11.9317
0
LINE
8
BLACK
6
CONTINUOUS
10
31.3479
20
11.9317
11
31.3427
21
11.9199
0
LINE
8
BLACK
6
CONTINUOUS
10
31.3427
20
11.9199
11
31.3423
21
11.9163
0
LINE
8
BLACK
6
CONTINUOUS
10
31.3423
20
11.9163
11
31.2946
21
11.8211
0
LINE
8
BLACK
6
CONTINUOUS
10
31.2946
20
11.8211
11
31.2813
21
11.8031
0
LINE
8
BLACK
6
CONTINUOUS
10
31.2813
20
11.8031
11
31.2806
21
11.8016
0
LINE
8
BLACK
6
CONTINUOUS
10
31.2806
20
11.8016
11
31.1854
21
11.7064
0
LINE
8
BLACK
6
CONTINUOUS
10
31.1854
20
11.7064
11
31.164
21
11.6914
0
LINE
8
BLACK
6
CONTINUOUS
10
31.164
20
11.6914
11
31.1596
21
11.691
0
LINE
8
BLACK
6
CONTINUOUS
10
31.1596
20
11.691
11
31.156
21
11.6882
0
LINE
8
BLACK
6
CONTINUOUS
10
31.156
20
11.6882
11
31.0132
21
11.6406
0
LINE
8
BLACK
6
CONTINUOUS
10
31.0132
20
11.6406
11
30.991
21
11.6373
0
LINE
8
BLACK
6
CONTINUOUS
10
30.991
20
11.6373
11
30.9895
21
11.6368
0
LINE
8
BLACK
6
CONTINUOUS
10
30.9895
20
11.6368
11
30.8942
21
11.6368
0
LINE
8
BLACK
6
CONTINUOUS
10
30.8942
20
11.6368
11
30.8721
21
11.6407
0
LINE
8
BLACK
6
CONTINUOUS
10
30.8721
20
11.6407
11
30.8705
21
11.6406
0
LINE
8
BLACK
6
CONTINUOUS
10
30.8705
20
11.6406
11
30.7277
21
11.6882
0
LINE
8
BLACK
6
CONTINUOUS
10
30.7277
20
11.6882
11
30.7048
21
11.7007
0
LINE
8
BLACK
6
CONTINUOUS
10
30.7048
20
11.7007
11
30.7024
21
11.7045
0
LINE
8
BLACK
6
CONTINUOUS
10
30.7024
20
11.7045
11
30.6983
21
11.7064
0
LINE
8
BLACK
6
CONTINUOUS
10
30.6983
20
11.7064
11
30.6507
21
11.754
0
LINE
8
BLACK
6
CONTINUOUS
10
30.6507
20
11.754
11
30.6358
21
11.7753
0
LINE
8
BLACK
6
CONTINUOUS
10
30.6358
20
11.7753
11
30.6313
21
11.8264
0
LINE
8
BLACK
6
CONTINUOUS
10
30.6313
20
11.8264
11
30.6607
21
11.8685
0
LINE
8
BLACK
6
CONTINUOUS
10
30.6607
20
11.8685
11
30.7103
21
11.8817
0
LINE
8
BLACK
6
CONTINUOUS
10
30.7103
20
11.8817
11
30.7568
21
11.8601
0
LINE
8
BLACK
6
CONTINUOUS
10
30.7568
20
11.8601
11
30.7919
21
11.825
0
LINE
8
BLACK
6
CONTINUOUS
10
30.7919
20
11.825
11
30.9064
21
11.7868
0
LINE
8
BLACK
6
CONTINUOUS
10
30.9064
20
11.7868
11
30.9773
21
11.7868
0
LINE
8
BLACK
6
CONTINUOUS
10
30.9773
20
11.7868
11
31.0918
21
11.825
0
LINE
8
BLACK
6
CONTINUOUS
10
31.0918
20
11.825
11
31.1659
21
11.8991
0
LINE
8
BLACK
6
CONTINUOUS
10
31.1659
20
11.8991
11
31.2044
21
11.9761
0
LINE
8
BLACK
6
CONTINUOUS
10
31.2044
20
11.9761
11
31.2478
21
12.1496
0
LINE
8
BLACK
6
CONTINUOUS
10
31.2478
20
12.1496
11
31.2478
21
12.274
0
LINE
8
BLACK
6
CONTINUOUS
10
31.2478
20
12.274
11
31.2044
21
12.4475
0
LINE
8
BLACK
6
CONTINUOUS
10
31.2044
20
12.4475
11
31.1659
21
12.5245
0
LINE
8
BLACK
6
CONTINUOUS
10
31.1659
20
12.5245
11
31.0918
21
12.5986
0
LINE
8
BLACK
6
CONTINUOUS
10
31.0918
20
12.5986
11
30.9773
21
12.6368
0
LINE
8
BLACK
6
CONTINUOUS
10
30.9773
20
12.6368
11
30.9064
21
12.6368
0
LINE
8
BLACK
6
CONTINUOUS
10
30.9064
20
12.6368
11
30.7919
21
12.5986
0
LINE
8
BLACK
6
CONTINUOUS
10
30.7919
20
12.5986
11
30.7568
21
12.5635
0
LINE
8
BLACK
6
CONTINUOUS
10
30.7568
20
12.5635
11
30.7355
21
12.5486
0
LINE
8
BLACK
6
CONTINUOUS
10
30.7355
20
12.5486
11
30.6843
21
12.5441
0
LINE
8
BLACK
6
CONTINUOUS
10
30.6843
20
12.5441
11
30.6423
21
12.5735
0
LINE
8
BLACK
6
CONTINUOUS
10
30.6423
20
12.5735
11
30.629
21
12.6231
0
LINE
8
BLACK
6
CONTINUOUS
10
30.629
20
12.6231
11
30.6507
21
12.6696
0
LINE
8
BLACK
6
CONTINUOUS
10
30.6507
20
12.6696
11
30.6983
21
12.7172
0
LINE
8
BLACK
6
CONTINUOUS
10
30.6983
20
12.7172
11
30.7197
21
12.7321
0
LINE
8
BLACK
6
CONTINUOUS
10
30.7197
20
12.7321
11
30.7241
21
12.7325
0
LINE
8
BLACK
6
CONTINUOUS
10
30.7241
20
12.7325
11
30.7277
21
12.7353
0
LINE
8
BLACK
6
CONTINUOUS
10
30.7277
20
12.7353
11
30.8705
21
12.7829
0
LINE
8
BLACK
6
CONTINUOUS
10
30.8705
20
12.7829
11
30.8927
21
12.7862
0
LINE
8
BLACK
6
CONTINUOUS
10
30.8927
20
12.7862
11
30.8942
21
12.7868
0
LINE
8
BLACK
6
CONTINUOUS
10
30.8942
20
12.7868
11
30.9895
21
12.7868
0
LINE
8
BLACK
6
CONTINUOUS
10
30.9895
20
12.7868
11
31.0116
21
12.7829
0
LINE
8
BLACK
6
CONTINUOUS
10
19.9623
20
11.8744
11
19.9798
21
11.832
0
LINE
8
BLACK
6
CONTINUOUS
10
19.9798
20
11.832
11
19.9623
21
11.7896
0
LINE
8
BLACK
6
CONTINUOUS
10
19.9623
20
11.7896
11
19.9198
21
11.772
0
LINE
8
BLACK
6
CONTINUOUS
10
19.9198
20
11.772
11
19.7042
21
11.772
0
LINE
8
BLACK
6
CONTINUOUS
10
19.7042
20
11.772
11
19.6617
21
11.7896
0
LINE
8
BLACK
6
CONTINUOUS
10
19.6617
20
11.7896
11
19.6442
21
11.832
0
LINE
8
BLACK
6
CONTINUOUS
10
19.6442
20
11.832
11
19.6617
21
11.8744
0
LINE
8
BLACK
6
CONTINUOUS
10
19.6617
20
11.8744
11
19.7042
21
11.892
0
LINE
8
BLACK
6
CONTINUOUS
10
19.7042
20
11.892
11
19.9198
21
11.892
0
LINE
8
BLACK
6
CONTINUOUS
10
19.9198
20
11.892
11
19.9623
21
11.8744
0
LINE
8
BLACK
6
CONTINUOUS
10
32.6623
20
11.8744
11
32.6798
21
11.832
0
LINE
8
BLACK
6
CONTINUOUS
10
32.6798
20
11.832
11
32.6623
21
11.7896
0
LINE
8
BLACK
6
CONTINUOUS
10
32.6623
20
11.7896
11
32.6198
21
11.772
0
LINE
8
BLACK
6
CONTINUOUS
10
32.6198
20
11.772
11
32.4042
21
11.772
0
LINE
8
BLACK
6
CONTINUOUS
10
32.4042
20
11.772
11
32.3617
21
11.7896
0
LINE
8
BLACK
6
CONTINUOUS
10
32.3617
20
11.7896
11
32.3442
21
11.832
0
LINE
8
BLACK
6
CONTINUOUS
10
32.3442
20
11.832
11
32.3617
21
11.8744
0
LINE
8
BLACK
6
CONTINUOUS
10
32.3617
20
11.8744
11
32.4042
21
11.892
0
LINE
8
BLACK
6
CONTINUOUS
10
32.4042
20
11.892
11
32.6198
21
11.892
0
LINE
8
BLACK
6
CONTINUOUS
10
32.6198
20
11.892
11
32.6623
21
11.8744
0
LINE
8
BLACK
6
CONTINUOUS
10
19.9623
20
12.5944
11
19.9798
21
12.552
0
LINE
8
BLACK
6
CONTINUOUS
10
19.9798
20
12.552
11
19.9623
21
12.5096
0
LINE
8
BLACK
6
CONTINUOUS
10
19.9623
20
12.5096
11
19.9198
21
12.492
0
LINE
8
BLACK
6
CONTINUOUS
10
19.9198
20
12.492
11
19.7042
21
12.492
0
LINE
8
BLACK
6
CONTINUOUS
10
19.7042
20
12.492
11
19.6617
21
12.5096
0
LINE
8
BLACK
6
CONTINUOUS
10
19.6617
20
12.5096
11
19.6442
21
12.552
0
LINE
8
BLACK
6
CONTINUOUS
10
19.6442
20
12.552
11
19.6617
21
12.5944
0
LINE
8
BLACK
6
CONTINUOUS
10
19.6617
20
12.5944
11
19.7042
21
12.612
0
LINE
8
BLACK
6
CONTINUOUS
10
19.7042
20
12.612
11
19.9198
21
12.612
0
LINE
8
BLACK
6
CONTINUOUS
10
19.9198
20
12.612
11
19.9623
21
12.5944
0
LINE
8
BLACK
6
CONTINUOUS
10
32.6623
20
12.5944
11
32.6798
21
12.552
0
LINE
8
BLACK
6
CONTINUOUS
10
32.6798
20
12.552
11
32.6623
21
12.5096
0
LINE
8
BLACK
6
CONTINUOUS
10
32.6623
20
12.5096
11
32.6198
21
12.492
0
LINE
8
BLACK
6
CONTINUOUS
10
32.6198
20
12.492
11
32.4042
21
12.492
0
LINE
8
BLACK
6
CONTINUOUS
10
32.4042
20
12.492
11
32.3617
21
12.5096
0
LINE
8
BLACK
6
CONTINUOUS
10
32.3617
20
12.5096
11
32.3442
21
12.552
0
LINE
8
BLACK
6
CONTINUOUS
10
32.3442
20
12.552
11
32.3617
21
12.5944
0
LINE
8
BLACK
6
CONTINUOUS
10
32.3617
20
12.5944
11
32.4042
21
12.612
0
LINE
8
BLACK
6
CONTINUOUS
10
32.4042
20
12.612
11
32.6198
21
12.612
0
LINE
8
BLACK
6
CONTINUOUS
10
32.6198
20
12.612
11
32.6623
21
12.5944
0
LINE
8
BLACK
6
CONTINUOUS
10
16.458
20
14.0523
11
16.4614
21
14.0494
0
LINE
8
BLACK
6
CONTINUOUS
10
16.4614
20
14.0494
11
16.4659
21
14.0489
0
LINE
8
BLACK
6
CONTINUOUS
10
16.4659
20
14.0489
11
16.5611
21
14.0012
0
LINE
8
BLACK
6
CONTINUOUS
10
16.5611
20
14.0012
11
16.5791
21
13.9879
0
LINE
8
BLACK
6
CONTINUOUS
10
16.5791
20
13.9879
11
16.5806
21
13.9872
0
LINE
8
BLACK
6
CONTINUOUS
10
16.5806
20
13.9872
11
16.6282
21
13.9396
0
LINE
8
BLACK
6
CONTINUOUS
10
16.6282
20
13.9396
11
16.6411
21
13.9212
0
LINE
8
BLACK
6
CONTINUOUS
10
16.6411
20
13.9212
11
16.6423
21
13.9201
0
LINE
8
BLACK
6
CONTINUOUS
10
16.6423
20
13.9201
11
16.6899
21
13.8248
0
LINE
8
BLACK
6
CONTINUOUS
10
16.6899
20
13.8248
11
16.6936
21
13.8124
0
LINE
8
BLACK
6
CONTINUOUS
10
16.6936
20
13.8124
11
16.6956
21
13.8095
0
LINE
8
BLACK
6
CONTINUOUS
10
16.6956
20
13.8095
11
16.7432
21
13.619
0
LINE
8
BLACK
6
CONTINUOUS
10
16.7432
20
13.619
11
16.7442
21
13.6041
0
LINE
8
BLACK
6
CONTINUOUS
10
16.7442
20
13.6041
11
16.7454
21
13.6008
0
LINE
8
BLACK
6
CONTINUOUS
10
16.7454
20
13.6008
11
16.7454
21
13.3627
0
LINE
8
BLACK
6
CONTINUOUS
10
16.7454
20
13.3627
11
16.7428
21
13.348
0
LINE
8
BLACK
6
CONTINUOUS
10
16.7428
20
13.348
11
16.7432
21
13.3445
0
LINE
8
BLACK
6
CONTINUOUS
10
16.7432
20
13.3445
11
16.6956
21
13.1541
0
LINE
8
BLACK
6
CONTINUOUS
10
16.6956
20
13.1541
11
16.6903
21
13.1422
0
LINE
8
BLACK
6
CONTINUOUS
10
16.6903
20
13.1422
11
16.6899
21
13.1387
0
LINE
8
BLACK
6
CONTINUOUS
10
16.6899
20
13.1387
11
16.6423
21
13.0435
0
LINE
8
BLACK
6
CONTINUOUS
10
16.6423
20
13.0435
11
16.6289
21
13.0255
0
LINE
8
BLACK
6
CONTINUOUS
10
16.6289
20
13.0255
11
16.6282
21
13.024
0
LINE
8
BLACK
6
CONTINUOUS
10
16.6282
20
13.024
11
16.5806
21
12.9764
0
LINE
8
BLACK
6
CONTINUOUS
10
16.5806
20
12.9764
11
16.5622
21
12.9635
0
LINE
8
BLACK
6
CONTINUOUS
10
16.5622
20
12.9635
11
16.5611
21
12.9623
0
LINE
8
BLACK
6
CONTINUOUS
10
16.5611
20
12.9623
11
16.4659
21
12.9147
0
LINE
8
BLACK
6
CONTINUOUS
10
16.4659
20
12.9147
11
16.4409
21
12.9073
0
LINE
8
BLACK
6
CONTINUOUS
10
16.4409
20
12.9073
11
16.4365
21
12.9083
0
LINE
8
BLACK
6
CONTINUOUS
10
16.4365
20
12.9083
11
16.4323
21
12.9068
0
LINE
8
BLACK
6
CONTINUOUS
10
16.4323
20
12.9068
11
16.3371
21
12.9068
0
LINE
8
BLACK
6
CONTINUOUS
10
16.3371
20
12.9068
11
16.3114
21
12.9113
0
LINE
8
BLACK
6
CONTINUOUS
10
16.3114
20
12.9113
11
16.308
21
12.9142
0
LINE
8
BLACK
6
CONTINUOUS
10
16.308
20
12.9142
11
16.3035
21
12.9147
0
LINE
8
BLACK
6
CONTINUOUS
10
16.3035
20
12.9147
11
16.2083
21
12.9623
0
LINE
8
BLACK
6
CONTINUOUS
10
16.2083
20
12.9623
11
16.1903
21
12.9757
0
LINE
8
BLACK
6
CONTINUOUS
10
16.1903
20
12.9757
11
16.1888
21
12.9764
0
LINE
8
BLACK
6
CONTINUOUS
10
16.1888
20
12.9764
11
16.1412
21
13.024
0
LINE
8
BLACK
6
CONTINUOUS
10
16.1412
20
13.024
11
16.1283
21
13.0424
0
LINE
8
BLACK
6
CONTINUOUS
10
16.1283
20
13.0424
11
16.1272
21
13.0435
0
LINE
8
BLACK
6
CONTINUOUS
10
16.1272
20
13.0435
11
16.0795
21
13.1387
0
LINE
8
BLACK
6
CONTINUOUS
10
16.0795
20
13.1387
11
16.0758
21
13.1511
0
LINE
8
BLACK
6
CONTINUOUS
10
16.0758
20
13.1511
11
16.0739
21
13.1541
0
LINE
8
BLACK
6
CONTINUOUS
10
16.0739
20
13.1541
11
16.0262
21
13.3445
0
LINE
8
BLACK
6
CONTINUOUS
10
16.0262
20
13.3445
11
16.0252
21
13.3595
0
LINE
8
BLACK
6
CONTINUOUS
10
16.0252
20
13.3595
11
16.024
21
13.3627
0
LINE
8
BLACK
6
CONTINUOUS
10
16.024
20
13.3627
11
16.024
21
13.6008
0
LINE
8
BLACK
6
CONTINUOUS
10
16.024
20
13.6008
11
16.0266
21
13.6156
0
LINE
8
BLACK
6
CONTINUOUS
10
16.0266
20
13.6156
11
16.0262
21
13.619
0
LINE
8
BLACK
6
CONTINUOUS
10
16.0262
20
13.619
11
16.0739
21
13.8095
0
LINE
8
BLACK
6
CONTINUOUS
10
16.0739
20
13.8095
11
16.0791
21
13.8213
0
LINE
8
BLACK
6
CONTINUOUS
10
16.0791
20
13.8213
11
16.0795
21
13.8248
0
LINE
8
BLACK
6
CONTINUOUS
10
16.0795
20
13.8248
11
16.1272
21
13.9201
0
LINE
8
BLACK
6
CONTINUOUS
10
16.1272
20
13.9201
11
16.1405
21
13.9381
0
LINE
8
BLACK
6
CONTINUOUS
10
16.1405
20
13.9381
11
16.1412
21
13.9396
0
LINE
8
BLACK
6
CONTINUOUS
10
16.1412
20
13.9396
11
16.1888
21
13.9872
0
LINE
8
BLACK
6
CONTINUOUS
10
16.1888
20
13.9872
11
16.2072
21
14.0001
0
LINE
8
BLACK
6
CONTINUOUS
10
16.2072
20
14.0001
11
16.2083
21
14.0012
0
LINE
8
BLACK
6
CONTINUOUS
10
16.2083
20
14.0012
11
16.3035
21
14.0489
0
LINE
8
BLACK
6
CONTINUOUS
10
16.3035
20
14.0489
11
16.3285
21
14.0563
0
LINE
8
BLACK
6
CONTINUOUS
10
16.3285
20
14.0563
11
16.3329
21
14.0552
0
LINE
8
BLACK
6
CONTINUOUS
10
16.3329
20
14.0552
11
16.3371
21
14.0568
0
LINE
8
BLACK
6
CONTINUOUS
10
16.3371
20
14.0568
11
16.4323
21
14.0568
0
LINE
8
BLACK
6
CONTINUOUS
10
16.4323
20
14.0568
11
16.458
21
14.0523
0
LINE
8
BLACK
6
CONTINUOUS
10
16.2863
20
13.8725
11
16.2559
21
13.8421
0
LINE
8
BLACK
6
CONTINUOUS
10
16.2559
20
13.8421
11
16.2174
21
13.7651
0
LINE
8
BLACK
6
CONTINUOUS
10
16.2174
20
13.7651
11
16.174
21
13.5916
0
LINE
8
BLACK
6
CONTINUOUS
10
16.174
20
13.5916
11
16.174
21
13.372
0
LINE
8
BLACK
6
CONTINUOUS
10
16.174
20
13.372
11
16.2174
21
13.1984
0
LINE
8
BLACK
6
CONTINUOUS
10
16.2174
20
13.1984
11
16.2559
21
13.1214
0
LINE
8
BLACK
6
CONTINUOUS
10
16.2559
20
13.1214
11
16.2863
21
13.091
0
LINE
8
BLACK
6
CONTINUOUS
10
16.2863
20
13.091
11
16.3548
21
13.0568
0
LINE
8
BLACK
6
CONTINUOUS
10
16.3548
20
13.0568
11
16.4146
21
13.0568
0
LINE
8
BLACK
6
CONTINUOUS
10
16.4146
20
13.0568
11
16.4831
21
13.091
0
LINE
8
BLACK
6
CONTINUOUS
10
16.4831
20
13.091
11
16.5135
21
13.1214
0
LINE
8
BLACK
6
CONTINUOUS
10
16.5135
20
13.1214
11
16.552
21
13.1984
0
LINE
8
BLACK
6
CONTINUOUS
10
16.552
20
13.1984
11
16.5954
21
13.372
0
LINE
8
BLACK
6
CONTINUOUS
10
16.5954
20
13.372
11
16.5954
21
13.5916
0
LINE
8
BLACK
6
CONTINUOUS
10
16.5954
20
13.5916
11
16.552
21
13.7651
0
LINE
8
BLACK
6
CONTINUOUS
10
16.552
20
13.7651
11
16.5135
21
13.8421
0
LINE
8
BLACK
6
CONTINUOUS
10
16.5135
20
13.8421
11
16.4831
21
13.8725
0
LINE
8
BLACK
6
CONTINUOUS
10
16.4831
20
13.8725
11
16.4146
21
13.9068
0
LINE
8
BLACK
6
CONTINUOUS
10
16.4146
20
13.9068
11
16.3548
21
13.9068
0
LINE
8
BLACK
6
CONTINUOUS
10
16.3548
20
13.9068
11
16.2863
21
13.8725
0
LINE
8
BLACK
6
CONTINUOUS
10
17.3538
20
14.0535
11
17.3582
21
14.0538
0
LINE
8
BLACK
6
CONTINUOUS
10
17.3582
20
14.0538
11
17.3757
21
14.0409
0
LINE
8
BLACK
6
CONTINUOUS
10
17.3757
20
14.0409
11
17.3945
21
14.03
0
LINE
8
BLACK
6
CONTINUOUS
10
17.3945
20
14.03
11
17.396
21
14.0259
0
LINE
8
BLACK
6
CONTINUOUS
10
17.396
20
14.0259
11
17.3995
21
14.0234
0
LINE
8
BLACK
6
CONTINUOUS
10
17.3995
20
14.0234
11
17.4906
21
13.8867
0
LINE
8
BLACK
6
CONTINUOUS
10
17.4906
20
13.8867
11
17.572
21
13.8053
0
LINE
8
BLACK
6
CONTINUOUS
10
17.572
20
13.8053
11
17.6563
21
13.7631
0
LINE
8
BLACK
6
CONTINUOUS
10
17.6563
20
13.7631
11
17.6773
21
13.7476
0
LINE
8
BLACK
6
CONTINUOUS
10
17.6773
20
13.7476
11
17.6977
21
13.7006
0
LINE
8
BLACK
6
CONTINUOUS
10
17.6977
20
13.7006
11
17.683
21
13.6514
0
LINE
8
BLACK
6
CONTINUOUS
10
17.683
20
13.6514
11
17.6402
21
13.6231
0
LINE
8
BLACK
6
CONTINUOUS
10
17.6402
20
13.6231
11
17.5893
21
13.629
0
LINE
8
BLACK
6
CONTINUOUS
10
17.5893
20
13.629
11
17.494
21
13.6766
0
LINE
8
BLACK
6
CONTINUOUS
10
17.494
20
13.6766
11
17.476
21
13.69
0
LINE
8
BLACK
6
CONTINUOUS
10
17.476
20
13.69
11
17.4745
21
13.6907
0
LINE
8
BLACK
6
CONTINUOUS
10
17.4745
20
13.6907
11
17.4121
21
13.7531
0
LINE
8
BLACK
6
CONTINUOUS
10
17.4121
20
13.7531
11
17.4121
21
13.0568
0
LINE
8
BLACK
6
CONTINUOUS
10
17.4121
20
13.0568
11
17.6228
21
13.0568
0
LINE
8
BLACK
6
CONTINUOUS
10
17.6228
20
13.0568
11
17.6485
21
13.0523
0
LINE
8
BLACK
6
CONTINUOUS
10
17.6485
20
13.0523
11
17.6878
21
13.0193
0
LINE
8
BLACK
6
CONTINUOUS
10
17.6878
20
13.0193
11
17.6967
21
12.9688
0
LINE
8
BLACK
6
CONTINUOUS
10
17.6967
20
12.9688
11
17.671
21
12.9243
0
LINE
8
BLACK
6
CONTINUOUS
10
17.671
20
12.9243
11
17.6228
21
12.9068
0
LINE
8
BLACK
6
CONTINUOUS
10
17.6228
20
12.9068
11
17.0514
21
12.9068
0
LINE
8
BLACK
6
CONTINUOUS
10
17.0514
20
12.9068
11
17.0257
21
12.9113
0
LINE
8
BLACK
6
CONTINUOUS
10
17.0257
20
12.9113
11
16.9864
21
12.9443
0
LINE
8
BLACK
6
CONTINUOUS
10
16.9864
20
12.9443
11
16.9775
21
12.9948
0
LINE
8
BLACK
6
CONTINUOUS
10
16.9775
20
12.9948
11
17.0032
21
13.0392
0
LINE
8
BLACK
6
CONTINUOUS
10
17.0032
20
13.0392
11
17.0514
21
13.0568
0
LINE
8
BLACK
6
CONTINUOUS
10
17.0514
20
13.0568
11
17.2621
21
13.0568
0
LINE
8
BLACK
6
CONTINUOUS
10
17.2621
20
13.0568
11
17.2621
21
13.9818
0
LINE
8
BLACK
6
CONTINUOUS
10
17.2621
20
13.9818
11
17.2666
21
14.0074
0
LINE
8
BLACK
6
CONTINUOUS
10
17.2666
20
14.0074
11
17.2694
21
14.0107
0
LINE
8
BLACK
6
CONTINUOUS
10
17.2694
20
14.0107
11
17.2699
21
14.015
0
LINE
8
BLACK
6
CONTINUOUS
10
17.2699
20
14.015
11
17.2856
21
14.0301
0
LINE
8
BLACK
6
CONTINUOUS
10
17.2856
20
14.0301
11
17.2996
21
14.0467
0
LINE
8
BLACK
6
CONTINUOUS
10
17.2996
20
14.0467
11
17.3038
21
14.0475
0
LINE
8
BLACK
6
CONTINUOUS
10
17.3038
20
14.0475
11
17.307
21
14.0505
0
LINE
8
BLACK
6
CONTINUOUS
10
17.307
20
14.0505
11
17.3287
21
14.0519
0
LINE
8
BLACK
6
CONTINUOUS
10
17.3287
20
14.0519
11
17.3501
21
14.0556
0
LINE
8
BLACK
6
CONTINUOUS
10
17.3501
20
14.0556
11
17.3538
21
14.0535
0
LINE
8
BLACK
6
CONTINUOUS
10
18.3116
20
14.0529
11
18.3132
21
14.0529
0
LINE
8
BLACK
6
CONTINUOUS
10
18.3132
20
14.0529
11
18.456
21
14.0053
0
LINE
8
BLACK
6
CONTINUOUS
10
18.456
20
14.0053
11
18.4789
21
13.9929
0
LINE
8
BLACK
6
CONTINUOUS
10
18.4789
20
13.9929
11
18.4813
21
13.9891
0
LINE
8
BLACK
6
CONTINUOUS
10
18.4813
20
13.9891
11
18.4854
21
13.9872
0
LINE
8
BLACK
6
CONTINUOUS
10
18.4854
20
13.9872
11
18.5806
21
13.892
0
LINE
8
BLACK
6
CONTINUOUS
10
18.5806
20
13.892
11
18.5935
21
13.8736
0
LINE
8
BLACK
6
CONTINUOUS
10
18.5935
20
13.8736
11
18.5946
21
13.8725
0
LINE
8
BLACK
6
CONTINUOUS
10
18.5946
20
13.8725
11
18.6423
21
13.7772
0
LINE
8
BLACK
6
CONTINUOUS
10
18.6423
20
13.7772
11
18.646
21
13.7648
0
LINE
8
BLACK
6
CONTINUOUS
10
18.646
20
13.7648
11
18.6479
21
13.7619
0
LINE
8
BLACK
6
CONTINUOUS
10
18.6479
20
13.7619
11
18.6956
21
13.5714
0
LINE
8
BLACK
6
CONTINUOUS
10
18.6956
20
13.5714
11
18.6966
21
13.5565
0
LINE
8
BLACK
6
CONTINUOUS
10
18.6966
20
13.5565
11
18.6978
21
13.5532
0
LINE
8
BLACK
6
CONTINUOUS
10
18.6978
20
13.5532
11
18.6978
21
13.4104
0
LINE
8
BLACK
6
CONTINUOUS
10
18.6978
20
13.4104
11
18.6952
21
13.3956
0
LINE
8
BLACK
6
CONTINUOUS
10
18.6952
20
13.3956
11
18.6956
21
13.3922
0
LINE
8
BLACK
6
CONTINUOUS
10
18.6956
20
13.3922
11
18.6479
21
13.2017
0
LINE
8
BLACK
6
CONTINUOUS
10
18.6479
20
13.2017
11
18.6427
21
13.1899
0
LINE
8
BLACK
6
CONTINUOUS
10
18.6427
20
13.1899
11
18.6423
21
13.1863
0
LINE
8
BLACK
6
CONTINUOUS
10
18.6423
20
13.1863
11
18.5946
21
13.0911
0
LINE
8
BLACK
6
CONTINUOUS
10
18.5946
20
13.0911
11
18.5813
21
13.0731
0
LINE
8
BLACK
6
CONTINUOUS
10
18.5813
20
13.0731
11
18.5806
21
13.0716
0
LINE
8
BLACK
6
CONTINUOUS
10
18.5806
20
13.0716
11
18.4854
21
12.9764
0
LINE
8
BLACK
6
CONTINUOUS
10
18.4854
20
12.9764
11
18.464
21
12.9614
0
LINE
8
BLACK
6
CONTINUOUS
10
18.464
20
12.9614
11
18.4596
21
12.961
0
LINE
8
BLACK
6
CONTINUOUS
10
18.4596
20
12.961
11
18.456
21
12.9582
0
LINE
8
BLACK
6
CONTINUOUS
10
18.456
20
12.9582
11
18.3132
21
12.9106
0
LINE
8
BLACK
6
CONTINUOUS
10
18.3132
20
12.9106
11
18.291
21
12.9073
0
LINE
8
BLACK
6
CONTINUOUS
10
18.291
20
12.9073
11
18.2895
21
12.9068
0
LINE
8
BLACK
6
CONTINUOUS
10
18.2895
20
12.9068
11
18.1942
21
12.9068
0
LINE
8
BLACK
6
CONTINUOUS
10
18.1942
20
12.9068
11
18.1721
21
12.9107
0
LINE
8
BLACK
6
CONTINUOUS
10
18.1721
20
12.9107
11
18.1705
21
12.9106
0
LINE
8
BLACK
6
CONTINUOUS
10
18.1705
20
12.9106
11
18.0277
21
12.9582
0
LINE
8
BLACK
6
CONTINUOUS
10
18.0277
20
12.9582
11
18.0048
21
12.9707
0
LINE
8
BLACK
6
CONTINUOUS
10
18.0048
20
12.9707
11
18.0024
21
12.9745
0
LINE
8
BLACK
6
CONTINUOUS
10
18.0024
20
12.9745
11
17.9983
21
12.9764
0
LINE
8
BLACK
6
CONTINUOUS
10
17.9983
20
12.9764
11
17.9507
21
13.024
0
LINE
8
BLACK
6
CONTINUOUS
10
17.9507
20
13.024
11
17.9358
21
13.0453
0
LINE
8
BLACK
6
CONTINUOUS
10
17.9358
20
13.0453
11
17.9313
21
13.0964
0
LINE
8
BLACK
6
CONTINUOUS
10
17.9313
20
13.0964
11
17.9607
21
13.1385
0
LINE
8
BLACK
6
CONTINUOUS
10
17.9607
20
13.1385
11
18.0103
21
13.1517
0
LINE
8
BLACK
6
CONTINUOUS
10
18.0103
20
13.1517
11
18.0568
21
13.1301
0
LINE
8
BLACK
6
CONTINUOUS
10
18.0568
20
13.1301
11
18.0919
21
13.095
0
LINE
8
BLACK
6
CONTINUOUS
10
18.0919
20
13.095
11
18.2064
21
13.0568
0
LINE
8
BLACK
6
CONTINUOUS
10
18.2064
20
13.0568
11
18.2773
21
13.0568
0
LINE
8
BLACK
6
CONTINUOUS
10
18.2773
20
13.0568
11
18.3918
21
13.095
0
LINE
8
BLACK
6
CONTINUOUS
10
18.3918
20
13.095
11
18.4659
21
13.1691
0
LINE
8
BLACK
6
CONTINUOUS
10
18.4659
20
13.1691
11
18.5044
21
13.2461
0
LINE
8
BLACK
6
CONTINUOUS
10
18.5044
20
13.2461
11
18.5478
21
13.4196
0
LINE
8
BLACK
6
CONTINUOUS
10
18.5478
20
13.4196
11
18.5478
21
13.544
0
LINE
8
BLACK
6
CONTINUOUS
10
18.5478
20
13.544
11
18.5044
21
13.7175
0
LINE
8
BLACK
6
CONTINUOUS
10
18.5044
20
13.7175
11
18.4659
21
13.7945
0
LINE
8
BLACK
6
CONTINUOUS
10
18.4659
20
13.7945
11
18.3918
21
13.8686
0
LINE
8
BLACK
6
CONTINUOUS
10
18.3918
20
13.8686
11
18.2773
21
13.9068
0
LINE
8
BLACK
6
CONTINUOUS
10
18.2773
20
13.9068
11
18.2064
21
13.9068
0
LINE
8
BLACK
6
CONTINUOUS
10
18.2064
20
13.9068
11
18.0919
21
13.8686
0
LINE
8
BLACK
6
CONTINUOUS
10
18.0919
20
13.8686
11
18.0568
21
13.8335
0
LINE
8
BLACK
6
CONTINUOUS
10
18.0568
20
13.8335
11
18.0355
21
13.8186
0
LINE
8
BLACK
6
CONTINUOUS
10
18.0355
20
13.8186
11
17.9843
21
13.8141
0
LINE
8
BLACK
6
CONTINUOUS
10
17.9843
20
13.8141
11
17.9423
21
13.8435
0
LINE
8
BLACK
6
CONTINUOUS
10
17.9423
20
13.8435
11
17.929
21
13.8931
0
LINE
8
BLACK
6
CONTINUOUS
10
17.929
20
13.8931
11
17.9507
21
13.9396
0
LINE
8
BLACK
6
CONTINUOUS
10
17.9507
20
13.9396
11
17.9983
21
13.9872
0
LINE
8
BLACK
6
CONTINUOUS
10
17.9983
20
13.9872
11
18.0197
21
14.0021
0
LINE
8
BLACK
6
CONTINUOUS
10
18.0197
20
14.0021
11
18.0241
21
14.0025
0
LINE
8
BLACK
6
CONTINUOUS
10
18.0241
20
14.0025
11
18.0277
21
14.0053
0
LINE
8
BLACK
6
CONTINUOUS
10
18.0277
20
14.0053
11
18.1705
21
14.0529
0
LINE
8
BLACK
6
CONTINUOUS
10
18.1705
20
14.0529
11
18.1927
21
14.0562
0
LINE
8
BLACK
6
CONTINUOUS
10
18.1927
20
14.0562
11
18.1942
21
14.0568
0
LINE
8
BLACK
6
CONTINUOUS
10
18.1942
20
14.0568
11
18.2895
21
14.0568
0
LINE
8
BLACK
6
CONTINUOUS
10
18.2895
20
14.0568
11
18.3116
21
14.0529
0
LINE
8
BLACK
6
CONTINUOUS
10
29.3267
20
14.0561
11
29.3284
21
14.0566
0
LINE
8
BLACK
6
CONTINUOUS
10
29.3284
20
14.0566
11
29.3312
21
14.0553
0
LINE
8
BLACK
6
CONTINUOUS
10
29.3312
20
14.0553
11
29.3485
21
14.0523
0
LINE
8
BLACK
6
CONTINUOUS
10
29.3485
20
14.0523
11
29.3607
21
14.042
0
LINE
8
BLACK
6
CONTINUOUS
10
29.3607
20
14.042
11
29.3752
21
14.0355
0
LINE
8
BLACK
6
CONTINUOUS
10
29.3752
20
14.0355
11
29.3797
21
14.026
0
LINE
8
BLACK
6
CONTINUOUS
10
29.3797
20
14.026
11
29.3878
21
14.0193
0
LINE
8
BLACK
6
CONTINUOUS
10
29.3878
20
14.0193
11
29.3905
21
14.0036
0
LINE
8
BLACK
6
CONTINUOUS
10
29.3905
20
14.0036
11
29.3974
21
13.9892
0
LINE
8
BLACK
6
CONTINUOUS
10
29.3974
20
13.9892
11
29.4451
21
13.5131
0
LINE
8
BLACK
6
CONTINUOUS
10
29.4451
20
13.5131
11
29.4431
21
13.4871
0
LINE
8
BLACK
6
CONTINUOUS
10
29.4431
20
13.4871
11
29.4428
21
13.4867
0
LINE
8
BLACK
6
CONTINUOUS
10
29.4428
20
13.4867
11
29.4429
21
13.4862
0
LINE
8
BLACK
6
CONTINUOUS
10
29.4429
20
13.4862
11
29.4284
21
13.4656
0
LINE
8
BLACK
6
CONTINUOUS
10
29.4284
20
13.4656
11
29.4142
21
13.4447
0
LINE
8
BLACK
6
CONTINUOUS
10
29.4142
20
13.4447
11
29.4137
21
13.4446
0
LINE
8
BLACK
6
CONTINUOUS
10
29.4137
20
13.4446
11
29.4134
21
13.4442
0
LINE
8
BLACK
6
CONTINUOUS
10
29.4134
20
13.4442
11
29.3891
21
13.4376
0
LINE
8
BLACK
6
CONTINUOUS
10
29.3891
20
13.4376
11
29.3648
21
13.4308
0
LINE
8
BLACK
6
CONTINUOUS
10
29.3648
20
13.4308
11
29.3644
21
13.431
0
LINE
8
BLACK
6
CONTINUOUS
10
29.3644
20
13.431
11
29.3639
21
13.4309
0
LINE
8
BLACK
6
CONTINUOUS
10
29.3639
20
13.4309
11
29.3411
21
13.4415
0
LINE
8
BLACK
6
CONTINUOUS
10
29.3411
20
13.4415
11
29.3181
21
13.4519
0
LINE
8
BLACK
6
CONTINUOUS
10
29.3181
20
13.4519
11
29.3178
21
13.4523
0
LINE
8
BLACK
6
CONTINUOUS
10
29.3178
20
13.4523
11
29.3174
21
13.4526
0
LINE
8
BLACK
6
CONTINUOUS
10
29.3174
20
13.4526
11
29.2784
21
13.4916
0
LINE
8
BLACK
6
CONTINUOUS
10
29.2784
20
13.4916
11
29.2099
21
13.5258
0
LINE
8
BLACK
6
CONTINUOUS
10
29.2099
20
13.5258
11
29.0072
21
13.5258
0
LINE
8
BLACK
6
CONTINUOUS
10
29.0072
20
13.5258
11
28.9387
21
13.4916
0
LINE
8
BLACK
6
CONTINUOUS
10
28.9387
20
13.4916
11
28.9083
21
13.4612
0
LINE
8
BLACK
6
CONTINUOUS
10
28.9083
20
13.4612
11
28.874
21
13.3926
0
LINE
8
BLACK
6
CONTINUOUS
10
28.874
20
13.3926
11
28.874
21
13.19
0
LINE
8
BLACK
6
CONTINUOUS
10
28.874
20
13.19
11
28.9083
21
13.1214
0
LINE
8
BLACK
6
CONTINUOUS
10
28.9083
20
13.1214
11
28.9387
21
13.091
0
LINE
8
BLACK
6
CONTINUOUS
10
28.9387
20
13.091
11
29.0072
21
13.0568
0
LINE
8
BLACK
6
CONTINUOUS
10
29.0072
20
13.0568
11
29.2099
21
13.0568
0
LINE
8
BLACK
6
CONTINUOUS
10
29.2099
20
13.0568
11
29.2784
21
13.091
0
LINE
8
BLACK
6
CONTINUOUS
10
29.2784
20
13.091
11
29.3174
21
13.1301
0
LINE
8
BLACK
6
CONTINUOUS
10
29.3174
20
13.1301
11
29.3387
21
13.145
0
LINE
8
BLACK
6
CONTINUOUS
10
29.3387
20
13.145
11
29.3898
21
13.1495
0
LINE
8
BLACK
6
CONTINUOUS
10
29.3898
20
13.1495
11
29.4319
21
13.12
0
LINE
8
BLACK
6
CONTINUOUS
10
29.4319
20
13.12
11
29.4451
21
13.0705
0
LINE
8
BLACK
6
CONTINUOUS
10
29.4451
20
13.0705
11
29.4235
21
13.024
0
LINE
8
BLACK
6
CONTINUOUS
10
29.4235
20
13.024
11
29.3758
21
12.9764
0
LINE
8
BLACK
6
CONTINUOUS
10
29.3758
20
12.9764
11
29.3575
21
12.9635
0
LINE
8
BLACK
6
CONTINUOUS
10
29.3575
20
12.9635
11
29.3563
21
12.9623
0
LINE
8
BLACK
6
CONTINUOUS
10
29.3563
20
12.9623
11
29.2611
21
12.9147
0
LINE
8
BLACK
6
CONTINUOUS
10
29.2611
20
12.9147
11
29.2361
21
12.9073
0
LINE
8
BLACK
6
CONTINUOUS
10
29.2361
20
12.9073
11
29.2318
21
12.9083
0
LINE
8
BLACK
6
CONTINUOUS
10
29.2318
20
12.9083
11
29.2276
21
12.9068
0
LINE
8
BLACK
6
CONTINUOUS
10
29.2276
20
12.9068
11
28.9895
21
12.9068
0
LINE
8
BLACK
6
CONTINUOUS
10
28.9895
20
12.9068
11
28.9638
21
12.9113
0
LINE
8
BLACK
6
CONTINUOUS
10
28.9638
20
12.9113
11
28.9604
21
12.9142
0
LINE
8
BLACK
6
CONTINUOUS
10
28.9604
20
12.9142
11
28.9559
21
12.9147
0
LINE
8
BLACK
6
CONTINUOUS
10
28.9559
20
12.9147
11
28.8607
21
12.9623
0
LINE
8
BLACK
6
CONTINUOUS
10
28.8607
20
12.9623
11
28.8427
21
12.9757
0
LINE
8
BLACK
6
CONTINUOUS
10
28.8427
20
12.9757
11
28.8412
21
12.9764
0
LINE
8
BLACK
6
CONTINUOUS
10
28.8412
20
12.9764
11
28.7936
21
13.024
0
LINE
8
BLACK
6
CONTINUOUS
10
28.7936
20
13.024
11
28.7807
21
13.0424
0
LINE
8
BLACK
6
CONTINUOUS
10
28.7807
20
13.0424
11
28.7795
21
13.0435
0
LINE
8
BLACK
6
CONTINUOUS
10
28.7795
20
13.0435
11
28.7319
21
13.1387
0
LINE
8
BLACK
6
CONTINUOUS
10
28.7319
20
13.1387
11
28.7245
21
13.1637
0
LINE
8
BLACK
6
CONTINUOUS
10
28.7245
20
13.1637
11
28.7255
21
13.168
0
LINE
8
BLACK
6
CONTINUOUS
10
28.7255
20
13.168
11
28.724
21
13.1723
0
LINE
8
BLACK
6
CONTINUOUS
10
28.724
20
13.1723
11
28.724
21
13.4104
0
LINE
8
BLACK
6
CONTINUOUS
10
28.724
20
13.4104
11
28.7285
21
13.436
0
LINE
8
BLACK
6
CONTINUOUS
10
28.7285
20
13.436
11
28.7314
21
13.4394
0
LINE
8
BLACK
6
CONTINUOUS
10
28.7314
20
13.4394
11
28.7319
21
13.4439
0
LINE
8
BLACK
6
CONTINUOUS
10
28.7319
20
13.4439
11
28.7795
21
13.5391
0
LINE
8
BLACK
6
CONTINUOUS
10
28.7795
20
13.5391
11
28.7929
21
13.5571
0
LINE
8
BLACK
6
CONTINUOUS
10
28.7929
20
13.5571
11
28.7936
21
13.5586
0
LINE
8
BLACK
6
CONTINUOUS
10
28.7936
20
13.5586
11
28.8412
21
13.6062
0
LINE
8
BLACK
6
CONTINUOUS
10
28.8412
20
13.6062
11
28.8596
21
13.6191
0
LINE
8
BLACK
6
CONTINUOUS
10
28.8596
20
13.6191
11
28.8607
21
13.6203
0
LINE
8
BLACK
6
CONTINUOUS
10
28.8607
20
13.6203
11
28.9559
21
13.6679
0
LINE
8
BLACK
6
CONTINUOUS
10
28.9559
20
13.6679
11
28.9809
21
13.6753
0
LINE
8
BLACK
6
CONTINUOUS
10
28.9809
20
13.6753
11
28.9853
21
13.6743
0
LINE
8
BLACK
6
CONTINUOUS
10
28.9853
20
13.6743
11
28.9895
21
13.6758
0
LINE
8
BLACK
6
CONTINUOUS
10
28.9895
20
13.6758
11
29.2276
21
13.6758
0
LINE
8
BLACK
6
CONTINUOUS
10
29.2276
20
13.6758
11
29.2532
21
13.6713
0
LINE
8
BLACK
6
CONTINUOUS
10
29.2532
20
13.6713
11
29.2567
21
13.6684
0
LINE
8
BLACK
6
CONTINUOUS
10
29.2567
20
13.6684
11
29.2611
21
13.6679
0
LINE
8
BLACK
6
CONTINUOUS
10
29.2611
20
13.6679
11
29.2797
21
13.6586
0
LINE
8
BLACK
6
CONTINUOUS
10
29.2797
20
13.6586
11
29.2549
21
13.9068
0
LINE
8
BLACK
6
CONTINUOUS
10
29.2549
20
13.9068
11
28.8466
21
13.9068
0
LINE
8
BLACK
6
CONTINUOUS
10
28.8466
20
13.9068
11
28.821
21
13.9113
0
LINE
8
BLACK
6
CONTINUOUS
10
28.821
20
13.9113
11
28.7817
21
13.9443
0
LINE
8
BLACK
6
CONTINUOUS
10
28.7817
20
13.9443
11
28.7728
21
13.9948
0
LINE
8
BLACK
6
CONTINUOUS
10
28.7728
20
13.9948
11
28.7984
21
14.0392
0
LINE
8
BLACK
6
CONTINUOUS
10
28.7984
20
14.0392
11
28.8466
21
14.0568
0
LINE
8
BLACK
6
CONTINUOUS
10
28.8466
20
14.0568
11
29.3228
21
14.0568
0
LINE
8
BLACK
6
CONTINUOUS
10
29.3228
20
14.0568
11
29.3267
21
14.0561
0
LINE
8
BLACK
6
CONTINUOUS
10
30.0538
20
14.0535
11
30.0582
21
14.0538
0
LINE
8
BLACK
6
CONTINUOUS
10
30.0582
20
14.0538
11
30.0757
21
14.0409
0
LINE
8
BLACK
6
CONTINUOUS
10
30.0757
20
14.0409
11
30.0945
21
14.03
0
LINE
8
BLACK
6
CONTINUOUS
10
30.0945
20
14.03
11
30.096
21
14.0259
0
LINE
8
BLACK
6
CONTINUOUS
10
30.096
20
14.0259
11
30.0995
21
14.0234
0
LINE
8
BLACK
6
CONTINUOUS
10
30.0995
20
14.0234
11
30.1906
21
13.8867
0
LINE
8
BLACK
6
CONTINUOUS
10
30.1906
20
13.8867
11
30.272
21
13.8053
0
LINE
8
BLACK
6
CONTINUOUS
10
30.272
20
13.8053
11
30.3563
21
13.7631
0
LINE
8
BLACK
6
CONTINUOUS
10
30.3563
20
13.7631
11
30.3773
21
13.7476
0
LINE
8
BLACK
6
CONTINUOUS
10
30.3773
20
13.7476
11
30.3977
21
13.7006
0
LINE
8
BLACK
6
CONTINUOUS
10
30.3977
20
13.7006
11
30.383
21
13.6514
0
LINE
8
BLACK
6
CONTINUOUS
10
30.383
20
13.6514
11
30.3402
21
13.6231
0
LINE
8
BLACK
6
CONTINUOUS
10
30.3402
20
13.6231
11
30.2893
21
13.629
0
LINE
8
BLACK
6
CONTINUOUS
10
30.2893
20
13.629
11
30.194
21
13.6766
0
LINE
8
BLACK
6
CONTINUOUS
10
30.194
20
13.6766
11
30.176
21
13.69
0
LINE
8
BLACK
6
CONTINUOUS
10
30.176
20
13.69
11
30.1745
21
13.6907
0
LINE
8
BLACK
6
CONTINUOUS
10
30.1745
20
13.6907
11
30.1121
21
13.7531
0
LINE
8
BLACK
6
CONTINUOUS
10
30.1121
20
13.7531
11
30.1121
21
13.0568
0
LINE
8
BLACK
6
CONTINUOUS
10
30.1121
20
13.0568
11
30.3228
21
13.0568
0
LINE
8
BLACK
6
CONTINUOUS
10
30.3228
20
13.0568
11
30.3485
21
13.0523
0
LINE
8
BLACK
6
CONTINUOUS
10
30.3485
20
13.0523
11
30.3878
21
13.0193
0
LINE
8
BLACK
6
CONTINUOUS
10
30.3878
20
13.0193
11
30.3967
21
12.9688
0
LINE
8
BLACK
6
CONTINUOUS
10
30.3967
20
12.9688
11
30.371
21
12.9243
0
LINE
8
BLACK
6
CONTINUOUS
10
30.371
20
12.9243
11
30.3228
21
12.9068
0
LINE
8
BLACK
6
CONTINUOUS
10
30.3228
20
12.9068
11
29.7514
21
12.9068
0
LINE
8
BLACK
6
CONTINUOUS
10
29.7514
20
12.9068
11
29.7257
21
12.9113
0
LINE
8
BLACK
6
CONTINUOUS
10
29.7257
20
12.9113
11
29.6864
21
12.9443
0
LINE
8
BLACK
6
CONTINUOUS
10
29.6864
20
12.9443
11
29.6775
21
12.9948
0
LINE
8
BLACK
6
CONTINUOUS
10
29.6775
20
12.9948
11
29.7032
21
13.0392
0
LINE
8
BLACK
6
CONTINUOUS
10
29.7032
20
13.0392
11
29.7514
21
13.0568
0
LINE
8
BLACK
6
CONTINUOUS
10
29.7514
20
13.0568
11
29.9621
21
13.0568
0
LINE
8
BLACK
6
CONTINUOUS
10
29.9621
20
13.0568
11
29.9621
21
13.9818
0
LINE
8
BLACK
6
CONTINUOUS
10
29.9621
20
13.9818
11
29.9666
21
14.0074
0
LINE
8
BLACK
6
CONTINUOUS
10
29.9666
20
14.0074
11
29.9694
21
14.0107
0
LINE
8
BLACK
6
CONTINUOUS
10
29.9694
20
14.0107
11
29.9699
21
14.015
0
LINE
8
BLACK
6
CONTINUOUS
10
29.9699
20
14.015
11
29.9856
21
14.0301
0
LINE
8
BLACK
6
CONTINUOUS
10
29.9856
20
14.0301
11
29.9996
21
14.0467
0
LINE
8
BLACK
6
CONTINUOUS
10
29.9996
20
14.0467
11
30.0038
21
14.0475
0
LINE
8
BLACK
6
CONTINUOUS
10
30.0038
20
14.0475
11
30.007
21
14.0505
0
LINE
8
BLACK
6
CONTINUOUS
10
30.007
20
14.0505
11
30.0287
21
14.0519
0
LINE
8
BLACK
6
CONTINUOUS
10
30.0287
20
14.0519
11
30.0501
21
14.0556
0
LINE
8
BLACK
6
CONTINUOUS
10
30.0501
20
14.0556
11
30.0538
21
14.0535
0
LINE
8
BLACK
6
CONTINUOUS
10
31.0116
20
14.0529
11
31.0132
21
14.0529
0
LINE
8
BLACK
6
CONTINUOUS
10
31.0132
20
14.0529
11
31.156
21
14.0053
0
LINE
8
BLACK
6
CONTINUOUS
10
31.156
20
14.0053
11
31.1789
21
13.9929
0
LINE
8
BLACK
6
CONTINUOUS
10
31.1789
20
13.9929
11
31.1813
21
13.9891
0
LINE
8
BLACK
6
CONTINUOUS
10
31.1813
20
13.9891
11
31.1854
21
13.9872
0
LINE
8
BLACK
6
CONTINUOUS
10
31.1854
20
13.9872
11
31.2806
21
13.892
0
LINE
8
BLACK
6
CONTINUOUS
10
31.2806
20
13.892
11
31.2935
21
13.8736
0
LINE
8
BLACK
6
CONTINUOUS
10
31.2935
20
13.8736
11
31.2946
21
13.8725
0
LINE
8
BLACK
6
CONTINUOUS
10
31.2946
20
13.8725
11
31.3423
21
13.7772
0
LINE
8
BLACK
6
CONTINUOUS
10
31.3423
20
13.7772
11
31.346
21
13.7648
0
LINE
8
BLACK
6
CONTINUOUS
10
31.346
20
13.7648
11
31.3479
21
13.7619
0
LINE
8
BLACK
6
CONTINUOUS
10
31.3479
20
13.7619
11
31.3956
21
13.5714
0
LINE
8
BLACK
6
CONTINUOUS
10
31.3956
20
13.5714
11
31.3966
21
13.5565
0
LINE
8
BLACK
6
CONTINUOUS
10
31.3966
20
13.5565
11
31.3978
21
13.5532
0
LINE
8
BLACK
6
CONTINUOUS
10
31.3978
20
13.5532
11
31.3978
21
13.4104
0
LINE
8
BLACK
6
CONTINUOUS
10
31.3978
20
13.4104
11
31.3952
21
13.3956
0
LINE
8
BLACK
6
CONTINUOUS
10
31.3952
20
13.3956
11
31.3956
21
13.3922
0
LINE
8
BLACK
6
CONTINUOUS
10
31.3956
20
13.3922
11
31.3479
21
13.2017
0
LINE
8
BLACK
6
CONTINUOUS
10
31.3479
20
13.2017
11
31.3427
21
13.1899
0
LINE
8
BLACK
6
CONTINUOUS
10
31.3427
20
13.1899
11
31.3423
21
13.1863
0
LINE
8
BLACK
6
CONTINUOUS
10
31.3423
20
13.1863
11
31.2946
21
13.0911
0
LINE
8
BLACK
6
CONTINUOUS
10
31.2946
20
13.0911
11
31.2813
21
13.0731
0
LINE
8
BLACK
6
CONTINUOUS
10
31.2813
20
13.0731
11
31.2806
21
13.0716
0
LINE
8
BLACK
6
CONTINUOUS
10
31.2806
20
13.0716
11
31.1854
21
12.9764
0
LINE
8
BLACK
6
CONTINUOUS
10
31.1854
20
12.9764
11
31.164
21
12.9614
0
LINE
8
BLACK
6
CONTINUOUS
10
31.164
20
12.9614
11
31.1596
21
12.961
0
LINE
8
BLACK
6
CONTINUOUS
10
31.1596
20
12.961
11
31.156
21
12.9582
0
LINE
8
BLACK
6
CONTINUOUS
10
31.156
20
12.9582
11
31.0132
21
12.9106
0
LINE
8
BLACK
6
CONTINUOUS
10
31.0132
20
12.9106
11
30.991
21
12.9073
0
LINE
8
BLACK
6
CONTINUOUS
10
30.991
20
12.9073
11
30.9895
21
12.9068
0
LINE
8
BLACK
6
CONTINUOUS
10
30.9895
20
12.9068
11
30.8942
21
12.9068
0
LINE
8
BLACK
6
CONTINUOUS
10
30.8942
20
12.9068
11
30.8721
21
12.9107
0
LINE
8
BLACK
6
CONTINUOUS
10
30.8721
20
12.9107
11
30.8705
21
12.9106
0
LINE
8
BLACK
6
CONTINUOUS
10
30.8705
20
12.9106
11
30.7277
21
12.9582
0
LINE
8
BLACK
6
CONTINUOUS
10
30.7277
20
12.9582
11
30.7048
21
12.9707
0
LINE
8
BLACK
6
CONTINUOUS
10
30.7048
20
12.9707
11
30.7024
21
12.9745
0
LINE
8
BLACK
6
CONTINUOUS
10
30.7024
20
12.9745
11
30.6983
21
12.9764
0
LINE
8
BLACK
6
CONTINUOUS
10
30.6983
20
12.9764
11
30.6507
21
13.024
0
LINE
8
BLACK
6
CONTINUOUS
10
30.6507
20
13.024
11
30.6358
21
13.0453
0
LINE
8
BLACK
6
CONTINUOUS
10
30.6358
20
13.0453
11
30.6313
21
13.0964
0
LINE
8
BLACK
6
CONTINUOUS
10
30.6313
20
13.0964
11
30.6607
21
13.1385
0
LINE
8
BLACK
6
CONTINUOUS
10
30.6607
20
13.1385
11
30.7103
21
13.1517
0
LINE
8
BLACK
6
CONTINUOUS
10
30.7103
20
13.1517
11
30.7568
21
13.1301
0
LINE
8
BLACK
6
CONTINUOUS
10
30.7568
20
13.1301
11
30.7919
21
13.095
0
LINE
8
BLACK
6
CONTINUOUS
10
30.7919
20
13.095
11
30.9064
21
13.0568
0
LINE
8
BLACK
6
CONTINUOUS
10
30.9064
20
13.0568
11
30.9773
21
13.0568
0
LINE
8
BLACK
6
CONTINUOUS
10
30.9773
20
13.0568
11
31.0918
21
13.095
0
LINE
8
BLACK
6
CONTINUOUS
10
31.0918
20
13.095
11
31.1659
21
13.1691
0
LINE
8
BLACK
6
CONTINUOUS
10
31.1659
20
13.1691
11
31.2044
21
13.2461
0
LINE
8
BLACK
6
CONTINUOUS
10
31.2044
20
13.2461
11
31.2478
21
13.4196
0
LINE
8
BLACK
6
CONTINUOUS
10
31.2478
20
13.4196
11
31.2478
21
13.544
0
LINE
8
BLACK
6
CONTINUOUS
10
31.2478
20
13.544
11
31.2044
21
13.7175
0
LINE
8
BLACK
6
CONTINUOUS
10
31.2044
20
13.7175
11
31.1659
21
13.7945
0
LINE
8
BLACK
6
CONTINUOUS
10
31.1659
20
13.7945
11
31.0918
21
13.8686
0
LINE
8
BLACK
6
CONTINUOUS
10
31.0918
20
13.8686
11
30.9773
21
13.9068
0
LINE
8
BLACK
6
CONTINUOUS
10
30.9773
20
13.9068
11
30.9064
21
13.9068
0
LINE
8
BLACK
6
CONTINUOUS
10
30.9064
20
13.9068
11
30.7919
21
13.8686
0
LINE
8
BLACK
6
CONTINUOUS
10
30.7919
20
13.8686
11
30.7568
21
13.8335
0
LINE
8
BLACK
6
CONTINUOUS
10
30.7568
20
13.8335
11
30.7355
21
13.8186
0
LINE
8
BLACK
6
CONTINUOUS
10
30.7355
20
13.8186
11
30.6843
21
13.8141
0
LINE
8
BLACK
6
CONTINUOUS
10
30.6843
20
13.8141
11
30.6423
21
13.8435
0
LINE
8
BLACK
6
CONTINUOUS
10
30.6423
20
13.8435
11
30.629
21
13.8931
0
LINE
8
BLACK
6
CONTINUOUS
10
30.629
20
13.8931
11
30.6507
21
13.9396
0
LINE
8
BLACK
6
CONTINUOUS
10
30.6507
20
13.9396
11
30.6983
21
13.9872
0
LINE
8
BLACK
6
CONTINUOUS
10
30.6983
20
13.9872
11
30.7197
21
14.0021
0
LINE
8
BLACK
6
CONTINUOUS
10
30.7197
20
14.0021
11
30.7241
21
14.0025
0
LINE
8
BLACK
6
CONTINUOUS
10
30.7241
20
14.0025
11
30.7277
21
14.0053
0
LINE
8
BLACK
6
CONTINUOUS
10
30.7277
20
14.0053
11
30.8705
21
14.0529
0
LINE
8
BLACK
6
CONTINUOUS
10
30.8705
20
14.0529
11
30.8927
21
14.0562
0
LINE
8
BLACK
6
CONTINUOUS
10
30.8927
20
14.0562
11
30.8942
21
14.0568
0
LINE
8
BLACK
6
CONTINUOUS
10
30.8942
20
14.0568
11
30.9895
21
14.0568
0
LINE
8
BLACK
6
CONTINUOUS
10
30.9895
20
14.0568
11
31.0116
21
14.0529
0
LINE
8
BLACK
6
CONTINUOUS
10
19.9623
20
13.1444
11
19.9798
21
13.102
0
LINE
8
BLACK
6
CONTINUOUS
10
19.9798
20
13.102
11
19.9623
21
13.0596
0
LINE
8
BLACK
6
CONTINUOUS
10
19.9623
20
13.0596
11
19.9198
21
13.042
0
LINE
8
BLACK
6
CONTINUOUS
10
19.9198
20
13.042
11
19.7042
21
13.042
0
LINE
8
BLACK
6
CONTINUOUS
10
19.7042
20
13.042
11
19.6617
21
13.0596
0
LINE
8
BLACK
6
CONTINUOUS
10
19.6617
20
13.0596
11
19.6442
21
13.102
0
LINE
8
BLACK
6
CONTINUOUS
10
19.6442
20
13.102
11
19.6617
21
13.1444
0
LINE
8
BLACK
6
CONTINUOUS
10
19.6617
20
13.1444
11
19.7042
21
13.162
0
LINE
8
BLACK
6
CONTINUOUS
10
19.7042
20
13.162
11
19.9198
21
13.162
0
LINE
8
BLACK
6
CONTINUOUS
10
19.9198
20
13.162
11
19.9623
21
13.1444
0
LINE
8
BLACK
6
CONTINUOUS
10
32.6623
20
13.1444
11
32.6798
21
13.102
0
LINE
8
BLACK
6
CONTINUOUS
10
32.6798
20
13.102
11
32.6623
21
13.0596
0
LINE
8
BLACK
6
CONTINUOUS
10
32.6623
20
13.0596
11
32.6198
21
13.042
0
LINE
8
BLACK
6
CONTINUOUS
10
32.6198
20
13.042
11
32.4042
21
13.042
0
LINE
8
BLACK
6
CONTINUOUS
10
32.4042
20
13.042
11
32.3617
21
13.0596
0
LINE
8
BLACK
6
CONTINUOUS
10
32.3617
20
13.0596
11
32.3442
21
13.102
0
LINE
8
BLACK
6
CONTINUOUS
10
32.3442
20
13.102
11
32.3617
21
13.1444
0
LINE
8
BLACK
6
CONTINUOUS
10
32.3617
20
13.1444
11
32.4042
21
13.162
0
LINE
8
BLACK
6
CONTINUOUS
10
32.4042
20
13.162
11
32.6198
21
13.162
0
LINE
8
BLACK
6
CONTINUOUS
10
32.6198
20
13.162
11
32.6623
21
13.1444
0
LINE
8
BLACK
6
CONTINUOUS
10
19.9623
20
13.8644
11
19.9798
21
13.822
0
LINE
8
BLACK
6
CONTINUOUS
10
19.9798
20
13.822
11
19.9623
21
13.7796
0
LINE
8
BLACK
6
CONTINUOUS
10
19.9623
20
13.7796
11
19.9198
21
13.762
0
LINE
8
BLACK
6
CONTINUOUS
10
19.9198
20
13.762
11
19.7042
21
13.762
0
LINE
8
BLACK
6
CONTINUOUS
10
19.7042
20
13.762
11
19.6617
21
13.7796
0
LINE
8
BLACK
6
CONTINUOUS
10
19.6617
20
13.7796
11
19.6442
21
13.822
0
LINE
8
BLACK
6
CONTINUOUS
10
19.6442
20
13.822
11
19.6617
21
13.8644
0
LINE
8
BLACK
6
CONTINUOUS
10
19.6617
20
13.8644
11
19.7042
21
13.882
0
LINE
8
BLACK
6
CONTINUOUS
10
19.7042
20
13.882
11
19.9198
21
13.882
0
LINE
8
BLACK
6
CONTINUOUS
10
19.9198
20
13.882
11
19.9623
21
13.8644
0
LINE
8
BLACK
6
CONTINUOUS
10
32.6623
20
13.8644
11
32.6798
21
13.822
0
LINE
8
BLACK
6
CONTINUOUS
10
32.6798
20
13.822
11
32.6623
21
13.7796
0
LINE
8
BLACK
6
CONTINUOUS
10
32.6623
20
13.7796
11
32.6198
21
13.762
0
LINE
8
BLACK
6
CONTINUOUS
10
32.6198
20
13.762
11
32.4042
21
13.762
0
LINE
8
BLACK
6
CONTINUOUS
10
32.4042
20
13.762
11
32.3617
21
13.7796
0
LINE
8
BLACK
6
CONTINUOUS
10
32.3617
20
13.7796
11
32.3442
21
13.822
0
LINE
8
BLACK
6
CONTINUOUS
10
32.3442
20
13.822
11
32.3617
21
13.8644
0
LINE
8
BLACK
6
CONTINUOUS
10
32.3617
20
13.8644
11
32.4042
21
13.882
0
LINE
8
BLACK
6
CONTINUOUS
10
32.4042
20
13.882
11
32.6198
21
13.882
0
LINE
8
BLACK
6
CONTINUOUS
10
32.6198
20
13.882
11
32.6623
21
13.8644
0
LINE
8
BLACK
6
CONTINUOUS
10
51.6644
20
18.0094
11
51.682
21
17.967
0
LINE
8
BLACK
6
CONTINUOUS
10
51.682
20
17.967
11
51.682
21
15.307
0
LINE
8
BLACK
6
CONTINUOUS
10
51.682
20
15.307
11
51.6644
21
15.2646
0
LINE
8
BLACK
6
CONTINUOUS
10
51.6644
20
15.2646
11
51.622
21
15.247
0
LINE
8
BLACK
6
CONTINUOUS
10
51.622
20
15.247
11
51.5796
21
15.2646
0
LINE
8
BLACK
6
CONTINUOUS
10
51.5796
20
15.2646
11
51.562
21
15.307
0
LINE
8
BLACK
6
CONTINUOUS
10
51.562
20
15.307
11
51.562
21
17.967
0
LINE
8
BLACK
6
CONTINUOUS
10
51.562
20
17.967
11
51.5796
21
18.0094
0
LINE
8
BLACK
6
CONTINUOUS
10
51.5796
20
18.0094
11
51.622
21
18.027
0
LINE
8
BLACK
6
CONTINUOUS
10
51.622
20
18.027
11
51.6644
21
18.0094
  0
ENDSEC
  0
EOF
